Oops, an error
Loading. Please wait.

Strange World tab

version 4
version 4

Whole song

Interactive

559 views 6 this week
no commentswrite comment
1 2 3 4 5
x 12
add to favorites
×
Save as Personal and add changes to this tab that will be seen only by you. Learn more ›
×
You can save this tab as Personal to edit and correct it or add notes. All changes will be seen only by you. Learn more »
launch autoscroll
font size
0
reset
how to read this tab
guitar tuner
edit
Autoscroll
slow
fast
+/-
esc
set tempo
stop
Author
Difficulty
                                Strange World                                   


                                 Iron Maiden


Instruments:
- G #1
- G #2
- G #3
- Voice Melody
- The Soundhouse Tapes Solos


Guitar #1:

Dave Murray

          Intro                                                  
          ^                ^                                     
     S    Q     E  E  Q    Q    E  E  Q       E  E  E  E  E  E   
E||----|--------0---------------0----------|--------------0-----|
B||----|-----------0---------------0-------|-----------0-----0--|
G||----|--0-----------0----0----------0----|--------0-----------|
D||----|--9----------------9---------------|-----7--------------|
A||----|--7----------------7---------------|--9-----------------|
E||----|-----------------------------------|--------------------|


  Q    E  E  E  E  Q    E  E  E  E     Q    E  E  Q    Q    E  E  Q     
----------0-----0-------0-----0-----|-------0---------------0----------|
-------------0-----7-------0-----0--|----------0--7------------0--7----|
-------0----------------------------|----------------------------------|
------------------------------------|--5-------------------------------|
--7---------------------------------|------------------7---------------|
------------------------------------|----------------------------------|


  Q    E  E  Q    Q    E  E  Q       E  E  E  E  E  E   
-------0---------------0----------|--------------0-----|
----------0---------------0-------|-----------0-----0--|
-------------0---------------0----|--------0-----------|
--5-------------------------------|-----7--------------|
------------------7---------------|--9-----------------|
----------------------------------|--------------------|


  Q    E  E  E  E  E  E  E  E  E  E      E   E  E  E  E  E  E  E  E  E  E  E   
----------0-----0-----0-----0-----0--|----------0-----------------0-----------|
-------------0-----7-----7-----0-----|--(7)--------0-----0-----0-----0-----0--|
-------0-----------------------------|-------0--------0-----------------0-----|
-------------------------------------|----------------------5-----------------|
--7----------------------------------|---7------------------------------------|
-------------------------------------|----------------------------------------|


  E  E  E  E  E  E  E  E  E  E  E  E     E  E  E  E  E  E   
--------0-----------------0-----------|--------------0-----|
-----0-----0-----0-----------0-----0--|-----------0-----0--|
--------------0--------0--------0-----|--------0-----------|
--5-----------------------------------|-----7--------------|
--------------------7-----------------|--9-----------------|
--------------------------------------|--------------------|


  Q    E  E  E  E  E  E  E  E  E  E      E   E  E  E  E  E  E  E  E  E  E  E   
----------0-----0-----0-----0-----0--|----------0-----------------0-----------|
-------------0-----7-----7-----0-----|--(7)--------0-----0-----0-----0-----0--|
-------0-----------------------------|-------0--------0-----------------0-----|
-------------------------------------|----------------------5-----------------|
--7----------------------------------|---7------------------------------------|
-------------------------------------|----------------------------------------|


  E  E  E  E  E  E  E  E  E  E  E  E     E  E  E  E  E  E   
--------0-----------------0-----------|--------------0-----|
-----0-----0-----0-----------0-----0--|-----------0-----0--|
--------------0--------0--------0-----|--------0-----------|
--5-----------------------------------|-----7--------------|
--------------------7-----------------|--9-----------------|
--------------------------------------|--------------------|


  Q    E  E  E  E   Q     E  E  E  E   
----------0-----0---------0-----0-----|
-------------0-----(7)-------7-----7--|
-------0------------------------------|
--------------------------------------|
--7-----------------7-----------------|
--------------------------------------|


   Solo 1 Adrian Smith                                
   Q                  E  E  E  E   Q     E  E  E  E   
----------------------0-----0------------0-----0-----|
--(7)--------------------7-----7--(7)-------7-----7--|
-----------------------------------------------------|
-----------------------------------------------------|
---7-------------------------------7-----------------|
-----------------------------------------------------|


  Q    Q    Q    Q    Q    Q       Q    Q    Q    Q    Q    Q     
--3--------------3--------------|--5--------------5--------------|
-------5--------------5---------|-------7--------------7---------|
------------5--------------5----|------------7--------------7----|
--------------------------------|--------------------------------|
--------------------------------|--------------------------------|
--------------------------------|--------------------------------|


  ^                                 ^                               
  Q.     E  E  E  Q    Q    Q       Q.     E  E  E  Q    Q    Q     
--7------7--------7--------------|--7------7--------7--------------|
--8---------8----------8---------|--8---------8----------8---------|
--9------------9------------9----|--9------------9------------9----|
---------------------------------|---------------------------------|
---------------------------------|---------------------------------|
---------------------------------|---------------------------------|


  Q    Q    Q    Q    Q    Q       Q    Q    Q    Q    Q    Q     
--3--------------3--------------|--5--------------5--------------|
-------5--------------5---------|-------7--------------7---------|
------------5--------------5----|------------7--------------7----|
--------------------------------|--------------------------------|
--------------------------------|--------------------------------|
--------------------------------|--------------------------------|


  ^                                 ^                               
  Q.     E  E  E  Q    Q    Q       Q.     E  E  E  Q    Q    Q     
--7------7--------7--------------|--7------7--------7--------------|
--8---------8----------8---------|--8---------8----------8---------|
--9------------9------------9----|--9------------9------------9----|
---------------------------------|---------------------------------|
---------------------------------|---------------------------------|
---------------------------------|---------------------------------|


  Q    Q    Q    Q    Q    Q       Q    Q    Q    Q    Q    Q     
--3--------------3--------------|--5--------------5--------------|
-------5--------------5---------|-------7--------------7---------|
------------5--------------5----|------------7--------------7----|
--------------------------------|--------------------------------|
--------------------------------|--------------------------------|
--------------------------------|--------------------------------|


  ^                                 ^                               
  Q.     E  E  E  Q    Q    Q       Q.     E  E  E  Q    Q    Q     
--7------7--------7--------------|--7------7--------7--------------|
--8---------8----------8---------|--8---------8----------8---------|
--9------------9------------9----|--9------------9------------9----|
---------------------------------|---------------------------------|
---------------------------------|---------------------------------|
---------------------------------|---------------------------------|


  Q    Q    Q    Q    Q    Q       Q    Q    Q    Q    Q    Q     
--3--------------3--------------|--5--------------5--------------|
-------5--------------5---------|-------7--------------7---------|
------------5--------------5----|------------7--------------7----|
--------------------------------|--------------------------------|
--------------------------------|--------------------------------|
--------------------------------|--------------------------------|


  ^                                 ^                               
  Q.     E  E  E  Q    Q    Q       Q.     E  E  E  Q    Q    Q     
--7------7--------7--------------|--7------7--------7--------------|
--8---------8----------8---------|--8---------8----------8---------|
--9------------9------------9----|--9------------9------------9----|
---------------------------------|---------------------------------|
---------------------------------|---------------------------------|
---------------------------------|---------------------------------|


  Verso Riff                                                           
  ^                                                                    
  Q.         E  E  E  Q    Q    Q       Q    Q    Q    Q    Q    Q     
--7----------7--------7--------------|--7--------------7--------------|
--8-------------8----------8---------|-------8--------------8---------|
--9----------------9------------9----|------------7--------------7----|
-------------------------------------|--------------------------------|
-------------------------------------|--------------------------------|
-------------------------------------|--------------------------------|


  E  E  E  E  E  E  Q    Q    Q       Q    Q    Q    Q    Q    Q     
--5--------5--------5--------------|--3--------------3--------------|
-----7--------7----------7---------|-------5--------------5---------|
--------7--------7------------7----|------------5--------------5----|
-----------------------------------|--------------------------------|
-----------------------------------|--------------------------------|
-----------------------------------|--------------------------------|


  Q    Q    Q    E  E  E  E  Q       Q    Q    Q    Q    Q    Q     
--7--------------7-----------7----|--7--------------7--------------|
-------8------------8-----8-------|-------8--------------8---------|
------------9----------9----------|------------7--------------7----|
----------------------------------|--------------------------------|
----------------------------------|--------------------------------|
----------------------------------|--------------------------------|


  E  E  E  E  E  E  Q    Q    Q       Q    Q    Q    Q    Q    Q     
--5--------5--------5--------------|--3--------------3--------------|
-----7--------7----------7---------|-------5--------------5---------|
--------7--------7------------7----|------------5--------------5----|
-----------------------------------|--------------------------------|
-----------------------------------|--------------------------------|
-----------------------------------|--------------------------------|


                                                    ^               
  Q    Q    Q    E  E  E  E  Q       Q    Q    Q    Q    Q    Q     
--7--------------7-----------7----|--7--------------7--------------|
-------8------------8-----8-------|-------8---------8----8---------|
------------9----------9----------|------------7----7---------7----|
----------------------------------|--------------------------------|
----------------------------------|--------------------------------|
----------------------------------|--------------------------------|


  E  E  E  E  E  E  Q    Q    Q       Q    Q    Q    Q    Q    Q     
--5--------5--------5--------------|--3--------------3--------------|
-----7--------7----------7---------|-------5--------------5---------|
--------7--------7------------7----|------------5--------------5----|
-----------------------------------|--------------------------------|
-----------------------------------|--------------------------------|
-----------------------------------|--------------------------------|


                                                    ^               
  Q    Q    Q    E  E  E  E  Q       Q    Q    Q    Q    Q    Q     
--7--------------7-----------7----|--7--------------7--------------|
-------8------------8-----8-------|-------8---------8----8---------|
------------9----------9----------|------------7----7---------7----|
----------------------------------|--------------------------------|
----------------------------------|--------------------------------|
----------------------------------|--------------------------------|


  E  E  E  E  E  E  Q    Q    Q       Q    Q    Q    Q    Q    Q     
--5--------5--------5--------------|--3--------------3--------------|
-----7--------7----------7---------|-------5--------------5---------|
--------7--------7------------7----|------------5--------------5----|
-----------------------------------|--------------------------------|
-----------------------------------|--------------------------------|
-----------------------------------|--------------------------------|


  Break                                                               
  ^                                 ^                                 
  Q.     E  E  E  Q    Q    Q       Q.     E  E  E  Q    E  E  E  E   
--7---------7-----7--------------|--7------0-----0----------0-----0--|
--8------8-----8-------8---------|--8---------7-----7----7-----7-----|
--9-------------------------9----|--9--------------------------------|
---------------------------------|-----------------------------------|
---------------------------------|-----------------------------------|
---------------------------------|-----------------------------------|


  Riff A                                                  
  ^                 ^                                     
  Q      E  E  Q    Q    E  E  Q       E  E  E  E  E  E   
---------0---------------0----------|--------------0-----|
------------0---------------0-------|-----------0-----0--|
--0------------0----0----------0----|--------0-----------|
--9-----------------9---------------|-----7--------------|
--7-----------------7---------------|--9-----------------|
------------------------------------|--------------------|


  Q    E  E  E  E  Q    E  E  E  E     Q    E  E  Q    Q    E  E  Q     
----------0-----0-------0-----0-----|-------0---------------0----------|
-------------0-----7-------0-----0--|----------0--7------------0--7----|
-------0----------------------------|----------------------------------|
------------------------------------|--5-------------------------------|
--7---------------------------------|------------------7---------------|
------------------------------------|----------------------------------|


  Q    E  E  Q    Q    E  E  Q       E  E  E  E  E  E   
-------0---------------0----------|--------------0-----|
----------0---------------0-------|-----------0-----0--|
-------------0---------------0----|--------0-----------|
--5-------------------------------|-----7--------------|
------------------7---------------|--9-----------------|
----------------------------------|--------------------|


  Q    E  E  E  E  E  E  E  E  E  E      E   E  E  E  E  E  E  E  E  E  E  E   
----------0-----0-----0-----0-----0--|----------0-----------------0-----------|
-------------0-----7-----7-----0-----|--(7)--------0-----0-----0-----0-----0--|
-------0-----------------------------|-------0--------0-----------------0-----|
-------------------------------------|----------------------5-----------------|
--7----------------------------------|---7------------------------------------|
-------------------------------------|----------------------------------------|


  E  E  E  E  E  E  E  E  E  E  E  E     E  E  E  E  E  E   
--------0-----------------0-----------|--------------0-----|
-----0-----0-----0-----------0-----0--|-----------0-----0--|
--------------0--------0--------0-----|--------0-----------|
--5-----------------------------------|-----7--------------|
--------------------7-----------------|--9-----------------|
--------------------------------------|--------------------|


  Q    E  E  E  E  E  E  E  E  E  E      E   E  E  E  E  E  E  E  E  E  E  E   
----------0-----0-----0-----0-----0--|----------0-----------------0-----------|
-------------0-----7-----7-----0-----|--(7)--------0-----0-----0-----0-----0--|
-------0-----------------------------|-------0--------0-----------------0-----|
-------------------------------------|----------------------5-----------------|
--7----------------------------------|---7------------------------------------|
-------------------------------------|----------------------------------------|


  E  E  E  E  E  E  E  E  E  E  E  E     E  E  E  E  E  E   
--------0-----------------0-----------|--------------0-----|
-----0-----0-----0-----------0-----0--|-----------0-----0--|
--------------0--------0--------0-----|--------0-----------|
--5-----------------------------------|-----7--------------|
--------------------7-----------------|--9-----------------|
--------------------------------------|--------------------|


  Q    E  E  E  E   Q     E  E  E  E   
----------0-----0---------0-----0-----|
-------------0-----(7)-------7-----7--|
-------0------------------------------|
--------------------------------------|
--7-----------------7-----------------|
--------------------------------------|


   Solo 2 Dave Murray                                  
   Q                 E  E  E  E   Q     Q      E   E   
---------------------0-----0--------------------------|
--(7)-------------------7-----7--(7)------------------|
--------------------------------------------------12--|
---------------------------------------------/14------|
---7------------------------------7-------------------|
------------------------------------------------------|


   H.            Q.      E   Q         H.             Q.      E   Q      
-----------------------------------|-----------------------------15b----|
------------------------12--15b----|--15~-------------L------12---------|
--14b------------L-----------------|------------------------------------|
-----------------------------------|------------------------------------|
-----------------------------------|------------------------------------|
-----------------------------------|------------------------------------|


   H.             Q      H             E    E   E   E   H.              E   E   
--15b------------15b----15b--------|--15b--15--14------------------------------|
-----------------------------------|---------------17--15br----------------15--|
-----------------------------------|-----------------------------------16------|
-----------------------------------|-------------------------------------------|
-----------------------------------|-------------------------------------------|
-----------------------------------|-------------------------------------------|


   H.              E   E   E   Q       S   S  
----------------------14--15--17br----17p-15-|
--17br------------17-------------------------|
---------------------------------------------|
---------------------------------------------|
---------------------------------------------|
---------------------------------------------|


   E   E   H          E   E   E   S   S  S   S   S   S  
--17--15~--L--------/14--15--14--15p-14----------------|
----------------------------------------17p-15h-17p-15-|
-------------------------------------------------------|
-------------------------------------------------------|
-------------------------------------------------------|
-------------------------------------------------------|


                                          SH            
   H          S   S   S  S  S   S  E      Q     E   E   
-------------14h-15p-14----------------------------15--|
--17~-------------------15--------15~--<>15b----L------|
---------------------------16p-14----------------------|
-------------------------------------------------------|
-------------------------------------------------------|
-------------------------------------------------------|


                    SH                                             SH       
   H.               H.                 H.              Q.          Q.       
-----------------------------------|---------------------------------------|
--15b------------<>15br------------|---------------------------------------|
-----------------------------------|--14br------------14br------<>16b------|
-----------------------------------|---------------------------------------|
-----------------------------------|---------------------------------------|
-----------------------------------|---------------------------------------|


                                      |----3---|   
   H          E   E   E   E   E   E   E    E   E   
-------------------------14--15--17--19p--17--15--|
-----------------15--17---------------------------|
--16~--------16-----------------------------------|
--------------------------------------------------|
--------------------------------------------------|
--------------------------------------------------|


                   tr        tr                              
                                       |---3---|  |---3---|  
   H.              Q         Q         S   S   S  S   S   S  
--17br------------15(17)----14(15)----12h-14p-12-10h-12p-10-|
------------------------------------------------------------|
------------------------------------------------------------|
------------------------------------------------------------|
------------------------------------------------------------|
------------------------------------------------------------|


   tr        tr        tr                                     tr        
                                         |---3---|   |--3--|            
   Q         Q         Q         Q       S   S   S   S  S  S  Q         
--12(10)---------------------------------------------------------------|
------------12(10)-----------------------------------------------------|
----------------------14(12)----14br----14p-12h-14p-12----12-11(12)----|
-------------------------------------------------------14--------------|
-----------------------------------------------------------------------|
-----------------------------------------------------------------------|


                   |----3---|   |----3---|         
   H.              E   E    E   E   E    E   Q     
--------------------------------------------------|
--------------------------------------------------|
--14br------------12--14p--12--11--12p--11--------|
--------------------------------------------12----|
--------------------------------------------------|
--------------------------------------------------|


   H.             E   E   Q      E   E      H          Q      H.              
------------------------------------12--|-------------15~--------------------|
--------------------------------12------|--15b---------------15br------------|
---------------------12--14b------------|------------------------------------|
--14~------------14---------------------|------------------------------------|
----------------------------------------|------------------------------------|
----------------------------------------|------------------------------------|


                   |----3----|   |----3----|               
   H.              E    E    E   E    E    E  S   S  S  S  
----------------------------------------------------------|
----------------------------------------------------------|
--14br------------12h--14p--12--11h--12p--11--9h-11p-9----|
-------------------------------------------------------12-|
----------------------------------------------------------|
----------------------------------------------------------|


  Verso Riff                                                       
  H.            E  E  E  E  Q       Q    Q    Q    Q    Q    Q     
----------------7-----------7----|--7--------------7--------------|
-------------------8-----8-------|-------8--------------8---------|
--9~------------------9----------|------------7--------------7----|
---------------------------------|--------------------------------|
---------------------------------|--------------------------------|
---------------------------------|--------------------------------|


  E  E  E  E  E  E  Q    Q    Q       Q    Q    Q    Q    Q    Q     
--5--------5--------5--------------|--3--------------3--------------|
-----7--------7----------7---------|-------5--------------5---------|
--------7--------7------------7----|------------5--------------5----|
-----------------------------------|--------------------------------|
-----------------------------------|--------------------------------|
-----------------------------------|--------------------------------|


  Q    Q    Q    E  E  E  E  Q       Q    Q    Q    Q    Q    Q     
--7--------------7-----------7----|--7--------------7--------------|
-------8------------8-----8-------|-------8--------------8---------|
------------9----------9----------|------------7--------------7----|
----------------------------------|--------------------------------|
----------------------------------|--------------------------------|
----------------------------------|--------------------------------|


  E  E  E  E  E  E  Q    Q    Q       Q    Q    Q    Q    Q    Q     
--5--------5--------5--------------|--3--------------3--------------|
-----7--------7----------7---------|-------5--------------5---------|
--------7--------7------------7----|------------5--------------5----|
-----------------------------------|--------------------------------|
-----------------------------------|--------------------------------|
-----------------------------------|--------------------------------|


                                                    ^               
  Q    Q    Q    E  E  E  E  Q       Q    Q    Q    Q    Q    Q     
--7--------------7-----------7----|--7--------------7--------------|
-------8------------8-----8-------|-------8---------8----8---------|
------------9----------9----------|------------7----7---------7----|
----------------------------------|--------------------------------|
----------------------------------|--------------------------------|
----------------------------------|--------------------------------|


  E  E  E  E  E  E  Q    Q    Q       Q    Q    Q    Q    Q    Q     
--5--------5--------5--------------|--3--------------3--------------|
-----7--------7----------7---------|-------5--------------5---------|
--------7--------7------------7----|------------5--------------5----|
-----------------------------------|--------------------------------|
-----------------------------------|--------------------------------|
-----------------------------------|--------------------------------|


                                                    ^               
  Q    Q    Q    E  E  E  E  Q       Q    Q    Q    Q    Q    Q     
--7--------------7-----------7----|--7--------------7--------------|
-------8------------8-----8-------|-------8---------8----8---------|
------------9----------9----------|------------7----7---------7----|
----------------------------------|--------------------------------|
----------------------------------|--------------------------------|
----------------------------------|--------------------------------|


  E  E  E  E  E  E  Q    Q    Q       Q    Q    Q    Q    Q    Q     
--5--------5--------5--------------|--3--------------3--------------|
-----7--------7----------7---------|-------5--------------5---------|
--------7--------7------------7----|------------5--------------5----|
-----------------------------------|--------------------------------|
-----------------------------------|--------------------------------|
-----------------------------------|--------------------------------|


  Break                                                               
  ^                                 ^                                 
  Q.     E  E  E  Q    Q    Q       Q.     E  E  E  Q    E  E  E  E   
--7---------7-----7--------------|--7------0-----0----------0-----0--|
--8------8-----8-------8---------|--8---------7-----7----7-----7-----|
--9-------------------------9----|--9--------------------------------|
---------------------------------|-----------------------------------|
---------------------------------|-----------------------------------|
---------------------------------|-----------------------------------|


  Riff A                                                  
  ^                 ^                                     
  Q      E  E  Q    Q    E  E  Q       E  E  E  E  E  E   
---------0---------------0----------|--------------0-----|
------------0---------------0-------|-----------0-----0--|
--0------------0----0----------0----|--------0-----------|
--9-----------------9---------------|-----7--------------|
--7-----------------7---------------|--9-----------------|
------------------------------------|--------------------|


  Q    E  E  E  E  Q    E  E  E  E     Q    E  E  Q    Q    E  E  Q     
----------0-----0-------0-----0-----|-------0---------------0----------|
-------------0-----7-------0-----0--|----------0--7------------0--7----|
-------0----------------------------|----------------------------------|
------------------------------------|--5-------------------------------|
--7---------------------------------|------------------7---------------|
------------------------------------|----------------------------------|


  Q    E  E  Q    Q    E  E  Q       E  E  E  E  E  E   
-------0---------------0----------|--------------0-----|
----------0---------------0-------|-----------0-----0--|
-------------0---------------0----|--------0-----------|
--5-------------------------------|-----7--------------|
------------------7---------------|--9-----------------|
----------------------------------|--------------------|


  Q    E  E  E  E  E  E  E  E  E  E      E   E  E  E  E  E  E  E  E  E  E  E   
----------0-----0-----0-----0-----0--|----------0-----------------0-----------|
-------------0-----7-----7-----0-----|--(7)--------0-----0-----0-----0-----0--|
-------0-----------------------------|-------0--------0-----------------0-----|
-------------------------------------|----------------------5-----------------|
--7----------------------------------|---7------------------------------------|
-------------------------------------|----------------------------------------|


  Q    E  E  Q    Q    E  E  Q       E  E  E  E  E  E   
-------0---------------0----------|--------------0-----|
----------0---------------0-------|-----------0-----0--|
-------------0---------------0----|--------0-----------|
--5-------------------------------|-----7--------------|
------------------7---------------|--9-----------------|
----------------------------------|--------------------|


  Q    E  E  E  E  E  E  E  E  E  E      E   E  E  E  E  E  E  E  E  E  E  E   
----------0-----0-----0-----0-----0--|----------0-----------------0-----------|
-------------0-----7-----7-----0-----|--(7)--------0-----0-----0-----0-----0--|
-------0-----------------------------|-------0--------0-----------------0-----|
-------------------------------------|----------------------5-----------------|
--7----------------------------------|---7------------------------------------|
-------------------------------------|----------------------------------------|


  Outro                                                                      
                                                           ^                 
  Q     E  E  Q    Q    E  E  Q       E  E  E  E  E  E     W.                
--------0---------------0----------|--------------0-----|--0----------------|
-----------0---------------0-------|-----------0-----0--|--0----------------|
--------------0---------------0----|--------0-----------|--9----------------|
--5--------------------------------|-----7--------------|--9----------------|
-------------------7---------------|--9-----------------|--7----------------|
-----------------------------------|--------------------|-------------------|


                      ^                                      
  W.                  W.                  W.                 
-------------------|--0----------------|--L----------------||
-------------------|--0----------------|--L----------------||
-------------------|--9----------------|--L----------------||
-------------------|--9----------------|--L----------------||
-------------------|--7----------------|--L----------------||
-------------------|-------------------|-------------------||




Guitar #2:

Adrian Smith

          Intro                                                               
                                                NH              NH            
     S    W.                  H.                H.              H.            
E||----|-------------------|---------------|--<>7------------<>12------------|
B||----|-------------------|---------------|---------------------------------|
G||----|-------------------|---------------|---------------------------------|
D||----|-------------------|---------------|---------------------------------|
A||----|-------------------|---------------|---------------------------------|
E||----|-------------------|---------------|---------------------------------|


    NH         NH      NH                                                
    H          Q       H.              W.                  H.            
--<>7--------<>7----<>12------------|-------------------|---------------|
------------------------------------|-------------------|---------------|
------------------------------------|-------------------|---------------|
------------------------------------|-------------------|---------------|
------------------------------------|-------------------|---------------|
------------------------------------|-------------------|---------------|


     NH          NH     NH                NH         NH      NH            
     H           Q      H.                H          Q       H.            
--<>12--------<>12----<>7------------|--<>7--------<>7----<>12------------|
-------------------------------------|------------------------------------|
-------------------------------------|------------------------------------|
-------------------------------------|------------------------------------|
-------------------------------------|------------------------------------|
-------------------------------------|------------------------------------|


                                        NH          NH      NH            
  W.                  H.                H           Q       H.            
-------------------|---------------|--<>7----------------<>12------------|
-------------------|---------------|-------------<>12--------------------|
-------------------|---------------|-------------------------------------|
-------------------|---------------|-------------------------------------|
-------------------|---------------|-------------------------------------|
-------------------|---------------|-------------------------------------|


     NH      NH      NH      NH                                                
     Q       Q       Q       H.              W.                  H.            
--<>12--------------------<>12------------|-------------------|---------------|
------------------<>12--------------------|-------------------|---------------|
----------<>12----------------------------|-------------------|---------------|
------------------------------------------|-------------------|---------------|
------------------------------------------|-------------------|---------------|
------------------------------------------|-------------------|---------------|


    NH          NH     NH          NH    
    H           Q      H           Q     
--<>7--------<>12----<>7----------------|
--------------------------------<>12----|
----------------------------------------|
----------------------------------------|
----------------------------------------|
----------------------------------------|


     Solo 1 Adrian Smith                             
     NH                  NH      NH                  
     H                   Q       H        E   S   S  
--<>12------------------------<>12------------------|
----------------------<>12-------------------17p-15-|
----------------------------------------------------|
----------------------------------------------------|
----------------------------------------------------|
----------------------------------------------------|


   W                  Q     Q     
---------------------14----15----|
--17~----------------------------|
---------------------------------|
---------------------------------|
---------------------------------|
---------------------------------|


      H.             E   S   S  E   S   S  Q     
--15g17~------------15--17p-15-14--15p-14-------|
------------------------------------------15----|
------------------------------------------------|
------------------------------------------------|
------------------------------------------------|
------------------------------------------------|


                            |----3----|                                         
   W                  Q     E     E   E      W                  Q       E   E   
-----------------------------------------|-------------------------------------|
--17~-----------------L----17br---L--15--|--17~-----------------L\-------------|
-----------------------------------------|---------------------------------12--|
-----------------------------------------|----------------------------/14------|
-----------------------------------------|-------------------------------------|
-----------------------------------------|-------------------------------------|


   W                  E   E   Q         H.             E   E   E   E   E   E   
------------------------------------|-----------------------------------------|
-------------------------15---------|---------------------13--15------13--15--|
--14b~----------------L------14b----|--14~------------16----------16----------|
------------------------------------|-----------------------------------------|
------------------------------------|-----------------------------------------|
------------------------------------|-----------------------------------------|


   W                 E   E   S   E.      E   E   H.             Q      E  E   
------------------------14--14h-15---|--14-----------------------------------|
--17~----------------L---------------|------15--17~-------------L\-----------|
-------------------------------------|------------------------------------7--|
-------------------------------------|--------------------------------/9-----|
-------------------------------------|---------------------------------------|
-------------------------------------|---------------------------------------|


  H.            E  S  S E  E  Q        H.            E   S  S E  S  S E  E   
-----------------------------------|----------------------------------------|
----------------7--8p-7----7--8----|--10~------------8--10p-8-7--8p-7-------|
--9~--------------------9----------|----------------------------------9--7--|
-----------------------------------|----------------------------------------|
-----------------------------------|----------------------------------------|
-----------------------------------|----------------------------------------|


  H         Q     Q     Q     E    E     W                 Q       E   E   
--------------------------------------|-------------------------------14--|
--------------------------------------|--------------------------/17------|
--9b--------9b----9b----9b----9br--7--|--9~----------------L\-------------|
--------------------------------------|-----------------------------------|
--------------------------------------|-----------------------------------|
--------------------------------------|-----------------------------------|


   H.             E   E   E   E   E   E   
--15~----------------14--15------14--15--|
-----------------17----------17----------|
-----------------------------------------|
-----------------------------------------|
-----------------------------------------|
-----------------------------------------|


   Q     E   E   E   E   E   E   E   E   E   E      W.                 
--17----14--15------14--------------------------|---------------------|
----------------17------15--17--------------15--|--17~----------------|
--------------------------------17--16--17------|---------------------|
------------------------------------------------|---------------------|
------------------------------------------------|---------------------|
------------------------------------------------|---------------------|


                       Verso Riff                            
                                  ^                          
   W.                  Q          H        E  E  E  E  Q     
--------------------|---------------------------------------|
---L----------------|----------------------7--------7-------|
--------------------|-------------------------9-------------|
--------------------|-------------9--------------9-----9----|
--------------------|-------------7-------------------------|
--------------------|-------------0-------------------------|


  Q    Q    Q    Q    S  S  E  S  S  E     E  E  E  E  E  E  Q    Q    Q     
----------------------------------------|-----------------------------------|
----------------------3h-5p-3-----------|--------------8--7------------7----|
-----------------5-------------4h-5p-4--|--------7-----------7--------------|
--5---------5---------------------------|-----7-----------------------------|
-------5--------------------------------|--5--------5-------------5---------|
----------------------------------------|-----------------------------------|


                                                     ^                          
  Q     E  E   E  E   E    E   E   E    Q       Q    H        E  E  E  E  Q     
---------------------10s--12--12--12s--10----|---------------------------------|
---------------------10s--12--12--12s--10----|----------------7--------7-------|
-----------9------9--------------------------|-------------------9-------------|
--------------10-----------------------------|-------9--------------9-----9----|
-------10------------------------------------|-------7-------------------------|
--8------------------------------------------|-------0-------------------------|


  Q    Q    Q    Q    S  S  E  S  S  E     E  E  E  E  E  E  Q    Q    Q     
----------------------------------------|-----------------------------------|
----------------------3h-5p-3-----------|--------------8--7------------7----|
-----------------5-------------4h-5p-4--|--------7-----------7--------------|
--5---------5---------------------------|-----7-----------------------------|
-------5--------------------------------|--5--------5-------------5---------|
----------------------------------------|-----------------------------------|


  Q     E  E   E    E   E   E   E   E    Q     
--------------10s--12--12--12--12--12s--10----|
--------------10s--12--12--12--12--12s--10----|
-----------9----------------------------------|
----------------------------------------------|
-------10-------------------------------------|
--8-------------------------------------------|


       ^                                                                   
  Q    H        E  E  E  E  Q       Q    Q    Q    Q    S  S  E  S  S  E   
---------------------------------|----------------------------------------|
----------------7--------7-------|----------------------3h-5p-3-----------|
-------------------9-------------|-----------------5-------------4h-5p-4--|
-------9--------------9-----9----|--5---------5---------------------------|
-------7-------------------------|-------5--------------------------------|
-------0-------------------------|----------------------------------------|


  E  E  E  E  E  E  Q    Q    Q     
-----------------------------------|
--------------8--7------------7----|
--------7-----------7--------------|
-----7-----------------------------|
--5--------5-------------5---------|
-----------------------------------|


                 NH    NH    NH    NH    NH      NH    
  Q     E  E     E     E     E     E     Q       Q     
----------------------------------------------<>12----|
--------------------------------------<>12------------|
-----------9--------------------<>12------------------|
--------------------------<>12------------------------|
-------10-----------<>12------------------------------|
--8-----------<>12------------------------------------|


       ^                                                                   
  Q    H        E  E  E  E  Q       Q    Q    Q    Q    S  S  E  S  S  E   
---------------------------------|----------------------------------------|
----------------7--------7-------|----------------------3h-5p-3-----------|
-------------------9-------------|-----------------5-------------4h-5p-4--|
-------9--------------9-----9----|--5---------5---------------------------|
-------7-------------------------|-------5--------------------------------|
-------0-------------------------|----------------------------------------|


  E  E  E  E  E  E  Q    Q    Q     
-----------------------------------|
--------------8--7------------7----|
--------7-----------7--------------|
-----7-----------------------------|
--5--------5-------------5---------|
-----------------------------------|


                                                 Break             
  Q     E  E   E    E   E   E   E   E    Q       W.                
--------------10s--12--12--12--12--12s--10----|-------------------|
--------------10s--12--12--12--12--12s--10----|-------------------|
-----------9----------------------------------|-------------------|
----------------------------------------------|-------------------|
-------10-------------------------------------|-------------------|
--8-------------------------------------------|--0----------------|


                      Riff A                            
  ^                                                     
  W.                  W.                  H.            
-------------------|-------------------|---------------|
-------------------|-------------------|---------------|
--9----------------|-------------------|---------------|
--9----------------|-------------------|---------------|
--7----------------|-------------------|---------------|
--0----------------|-------------------|---------------|


    NH              NH                NH         NH      NH            
    H.              H.                H          Q       H.            
--<>7------------<>12------------|--<>7--------<>7----<>12------------|
---------------------------------|------------------------------------|
---------------------------------|------------------------------------|
---------------------------------|------------------------------------|
---------------------------------|------------------------------------|
---------------------------------|------------------------------------|


                                         NH          NH     NH            
  W.                  H.                 H           Q      H.            
-------------------|---------------|--<>12--------<>12----<>7------------|
-------------------|---------------|-------------------------------------|
-------------------|---------------|-------------------------------------|
-------------------|---------------|-------------------------------------|
-------------------|---------------|-------------------------------------|
-------------------|---------------|-------------------------------------|


    NH         NH      NH                                                
    H          Q       H.              W.                  H.            
--<>7--------<>7----<>12------------|-------------------|---------------|
------------------------------------|-------------------|---------------|
------------------------------------|-------------------|---------------|
------------------------------------|-------------------|---------------|
------------------------------------|-------------------|---------------|
------------------------------------|-------------------|---------------|


    NH          NH      NH            
    H           Q       H.            
--<>7----------------<>12------------|
-------------<>12--------------------|
-------------------------------------|
-------------------------------------|
-------------------------------------|
-------------------------------------|


     NH      NH      NH      NH                                                
     Q       Q       Q       H.              W.                  H.            
--<>12--------------------<>12------------|-------------------|---------------|
------------------<>12--------------------|-------------------|---------------|
----------<>12----------------------------|-------------------|---------------|
------------------------------------------|-------------------|---------------|
------------------------------------------|-------------------|---------------|
------------------------------------------|-------------------|---------------|


    NH          NH     NH          NH    
    H           Q      H           Q     
--<>7--------<>12----<>7----------------|
--------------------------------<>12----|
----------------------------------------|
----------------------------------------|
----------------------------------------|
----------------------------------------|


     Solo 2 Dave Murray                                                         
     NH                 NH      NH                                              
     H                  Q       H        Q       Q    Q    Q    Q    Q    Q     
--<>12-----------------------<>12-------------|--3--------------3--------------|
---------------------<>12---------------------|-------5--------------5---------|
----------------------------------------------|------------5--------------5----|
----------------------------------------------|--------------------------------|
----------------------------------------------|--------------------------------|
----------------------------------------------|--------------------------------|


                                   ^                               
  Q    Q    Q    Q    Q    Q       Q.     E  E  E  Q    Q    Q     
--5--------------5--------------|--7------7--------7--------------|
-------7--------------7---------|--8---------8----------8---------|
------------7--------------7----|--9------------9------------9----|
--------------------------------|---------------------------------|
--------------------------------|---------------------------------|
--------------------------------|---------------------------------|


  ^                                                                
  Q.     E  E  E  Q    Q    Q       Q    Q    Q    Q    Q    Q     
--7------7--------7--------------|--3--------------3--------------|
--8---------8----------8---------|-------5--------------5---------|
--9------------9------------9----|------------5--------------5----|
---------------------------------|--------------------------------|
---------------------------------|--------------------------------|
---------------------------------|--------------------------------|


                                   ^                               
  Q    Q    Q    Q    Q    Q       Q.     E  E  E  Q    Q    Q     
--5--------------5--------------|--7------7--------7--------------|
-------7--------------7---------|--8---------8----------8---------|
------------7--------------7----|--9------------9------------9----|
--------------------------------|---------------------------------|
--------------------------------|---------------------------------|
--------------------------------|---------------------------------|


  ^                                                                
  Q.     E  E  E  Q    Q    Q       Q    Q    Q    Q    Q    Q     
--7------7--------7--------------|--3--------------3--------------|
--8---------8----------8---------|-------5--------------5---------|
--9------------9------------9----|------------5--------------5----|
---------------------------------|--------------------------------|
---------------------------------|--------------------------------|
---------------------------------|--------------------------------|


                                   ^                               
  Q    Q    Q    Q    Q    Q       Q.     E  E  E  Q    Q    Q     
--5--------------5--------------|--7------7--------7--------------|
-------7--------------7---------|--8---------8----------8---------|
------------7--------------7----|--9------------9------------9----|
--------------------------------|---------------------------------|
--------------------------------|---------------------------------|
--------------------------------|---------------------------------|


  ^                                                                
  Q.     E  E  E  Q    Q    Q       Q    Q    Q    Q    Q    Q     
--7------7--------7--------------|--3--------------3--------------|
--8---------8----------8---------|-------5--------------5---------|
--9------------9------------9----|------------5--------------5----|
---------------------------------|--------------------------------|
---------------------------------|--------------------------------|
---------------------------------|--------------------------------|


                                   ^                               
  Q    Q    Q    Q    Q    Q       Q.     E  E  E  Q    Q    Q     
--5--------------5--------------|--7------7--------7--------------|
-------7--------------7---------|--8---------8----------8---------|
------------7--------------7----|--9------------9------------9----|
--------------------------------|---------------------------------|
--------------------------------|---------------------------------|
--------------------------------|---------------------------------|


                                    Verso Riff                            
  ^                                            ^                          
  Q.     E  E  E  Q    Q    Q       Q          H        E  E  E  E  Q     
--7------7--------7--------------|---------------------------------------|
--8---------8----------8---------|----------------------7--------7-------|
--9------------9------------9----|-------------------------9-------------|
---------------------------------|-------------9--------------9-----9----|
---------------------------------|-------------7-------------------------|
---------------------------------|-------------0-------------------------|


  Q    Q    Q    Q    S  S  E  S  S  E     E  E  E  E  E  E  Q    Q    Q     
----------------------------------------|-----------------------------------|
----------------------3h-5p-3-----------|--------------8--7------------7----|
-----------------5-------------4h-5p-4--|--------7-----------7--------------|
--5---------5---------------------------|-----7-----------------------------|
-------5--------------------------------|--5--------5-------------5---------|
----------------------------------------|-----------------------------------|


                                                     ^                          
  Q     E  E   E  E   E    E   E   E    Q       Q    H        E  E  E  E  Q     
---------------------10s--12--12--12s--10----|---------------------------------|
---------------------10s--12--12--12s--10----|----------------7--------7-------|
-----------9------9--------------------------|-------------------9-------------|
--------------10-----------------------------|-------9--------------9-----9----|
-------10------------------------------------|-------7-------------------------|
--8------------------------------------------|-------0-------------------------|


  Q    Q    Q    Q    S  S  E  S  S  E     E  E  E  E  E  E  Q    Q    Q     
----------------------------------------|-----------------------------------|
----------------------3h-5p-3-----------|--------------8--7------------7----|
-----------------5-------------4h-5p-4--|--------7-----------7--------------|
--5---------5---------------------------|-----7-----------------------------|
-------5--------------------------------|--5--------5-------------5---------|
----------------------------------------|-----------------------------------|


  Q     E  E   E    E   E   E   E   E    Q     
--------------10s--12--12--12--12--12s--10----|
--------------10s--12--12--12--12--12s--10----|
-----------9----------------------------------|
----------------------------------------------|
-------10-------------------------------------|
--8-------------------------------------------|


       ^                                                                   
  Q    H        E  E  E  E  Q       Q    Q    Q    Q    S  S  E  S  S  E   
---------------------------------|----------------------------------------|
----------------7--------7-------|----------------------3h-5p-3-----------|
-------------------9-------------|-----------------5-------------4h-5p-4--|
-------9--------------9-----9----|--5---------5---------------------------|
-------7-------------------------|-------5--------------------------------|
-------0-------------------------|----------------------------------------|


  E  E  E  E  E  E  Q    Q    Q     
-----------------------------------|
--------------8--7------------7----|
--------7-----------7--------------|
-----7-----------------------------|
--5--------5-------------5---------|
-----------------------------------|


                 NH    NH    NH    NH    NH      NH    
  Q     E  E     E     E     E     E     Q       Q     
----------------------------------------------<>12----|
--------------------------------------<>12------------|
-----------9--------------------<>12------------------|
--------------------------<>12------------------------|
-------10-----------<>12------------------------------|
--8-----------<>12------------------------------------|


       ^                                                                   
  Q    H        E  E  E  E  Q       Q    Q    Q    Q    S  S  E  S  S  E   
---------------------------------|----------------------------------------|
----------------7--------7-------|----------------------3h-5p-3-----------|
-------------------9-------------|-----------------5-------------4h-5p-4--|
-------9--------------9-----9----|--5---------5---------------------------|
-------7-------------------------|-------5--------------------------------|
-------0-------------------------|----------------------------------------|


  E  E  E  E  E  E  Q    Q    Q     
-----------------------------------|
--------------8--7------------7----|
--------7-----------7--------------|
-----7-----------------------------|
--5--------5-------------5---------|
-----------------------------------|


                                                 Break             
  Q     E  E   E    E   E   E   E   E    Q       W.                
--------------10s--12--12--12--12--12s--10----|-------------------|
--------------10s--12--12--12--12--12s--10----|-------------------|
-----------9----------------------------------|-------------------|
----------------------------------------------|-------------------|
-------10-------------------------------------|-------------------|
--8-------------------------------------------|--0----------------|


                      Riff A                            
  ^                                                     
  W.                  W.                  H.            
-------------------|-------------------|---------------|
-------------------|-------------------|---------------|
--9----------------|-------------------|---------------|
--9----------------|-------------------|---------------|
--7----------------|-------------------|---------------|
--0----------------|-------------------|---------------|


    NH              NH                NH         NH      NH            
    H.              H.                H          Q       H.            
--<>7------------<>12------------|--<>7--------<>7----<>12------------|
---------------------------------|------------------------------------|
---------------------------------|------------------------------------|
---------------------------------|------------------------------------|
---------------------------------|------------------------------------|
---------------------------------|------------------------------------|


                                         NH          NH     NH            
  W.                  H.                 H           Q      H.            
-------------------|---------------|--<>12--------<>12----<>7------------|
-------------------|---------------|-------------------------------------|
-------------------|---------------|-------------------------------------|
-------------------|---------------|-------------------------------------|
-------------------|---------------|-------------------------------------|
-------------------|---------------|-------------------------------------|


    NH         NH      NH                                                
    H          Q       H.              W.                  H.            
--<>7--------<>7----<>12------------|-------------------|---------------|
------------------------------------|-------------------|---------------|
------------------------------------|-------------------|---------------|
------------------------------------|-------------------|---------------|
------------------------------------|-------------------|---------------|
------------------------------------|-------------------|---------------|


    NH          NH      NH                NH         NH      NH            
    H           Q       H.                H          Q       H.            
--<>7----------------<>12------------|--<>7--------<>7----<>12------------|
-------------<>12--------------------|------------------------------------|
-------------------------------------|------------------------------------|
-------------------------------------|------------------------------------|
-------------------------------------|------------------------------------|
-------------------------------------|------------------------------------|


  Outro                                                 
  W.                  H.              W.                
-------------------|---------------|-------------------|
-------------------|---------------|-------------------|
-------------------|---------------|-------------------|
-------------------|---------------|-------------------|
-------------------|---------------|-------------------|
-------------------|---------------|-------------------|


                                                     ^                 
   E    E    E    E    E    E    Q.       Q.         W.                
----------------------(0)-------------------------|-------------------|
---------------------------(0)--------------------|-------------------|
-----------------(0)------------(0)---------------|-------------------|
------------(4)--------------------------(4)------|--2----------------|
-------(2)----------------------------------------|--2----------------|
--(0)---------------------------------------------|--0----------------|


  W.                 
-------------------||
-------------------||
-------------------||
--L----------------||
--L----------------||
--L----------------||




Guitar #3:

Janick Gers

          Intro                                                  
          ^                ^                                     
     S    Q     E  E  Q    Q    E  E  Q       E  E  E  E  E  E   
E||----|--------0---------------0----------|--------------0-----|
B||----|-----------0---------------0-------|-----------0-----0--|
G||----|--0-----------0----0----------0----|--------0-----------|
D||----|--9----------------9---------------|-----7--------------|
A||----|--7----------------7---------------|--9-----------------|
E||----|-----------------------------------|--------------------|


  Q    E  E  E  E  Q    E  E  E  E     Q    E  E  Q    Q    E  E  Q     
----------0-----0-------0-----0-----|-------0---------------0----------|
-------------0-----7-------0-----0--|----------0--7------------0--7----|
-------0----------------------------|----------------------------------|
------------------------------------|--5-------------------------------|
--7---------------------------------|------------------7---------------|
------------------------------------|----------------------------------|


  Q    E  E  Q    Q    E  E  Q       E  E  E  E  E  E   
-------0---------------0----------|--------------0-----|
----------0---------------0-------|-----------0-----0--|
-------------0---------------0----|--------0-----------|
--5-------------------------------|-----7--------------|
------------------7---------------|--9-----------------|
----------------------------------|--------------------|


  Q    E  E  E  E  E  E  E  E  E  E      E   E  E  E  E  E  E  E  E  E  E  E   
----------0-----0-----0-----0-----0--|----------0-----------------0-----------|
-------------0-----7-----7-----0-----|--(7)--------0-----0-----0-----0-----0--|
-------0-----------------------------|-------0--------0-----------------0-----|
-------------------------------------|----------------------5-----------------|
--7----------------------------------|---7------------------------------------|
-------------------------------------|----------------------------------------|


  E  E  E  E  E  E  E  E  E  E  E  E     E  E  E  E  E  E   
--------0-----------------0-----------|--------------0-----|
-----0-----0-----0-----------0-----0--|-----------0-----0--|
--------------0--------0--------0-----|--------0-----------|
--5-----------------------------------|-----7--------------|
--------------------7-----------------|--9-----------------|
--------------------------------------|--------------------|


  Q    E  E  E  E  E  E  E  E  E  E      E   E  E  E  E  E  E  E  E  E  E  E   
----------0-----0-----0-----0-----0--|----------0-----------------0-----------|
-------------0-----7-----7-----0-----|--(7)--------0-----0-----0-----0-----0--|
-------0-----------------------------|-------0--------0-----------------0-----|
-------------------------------------|----------------------5-----------------|
--7----------------------------------|---7------------------------------------|
-------------------------------------|----------------------------------------|


  E  E  E  E  E  E  E  E  E  E  E  E     E  E  E  E  E  E   
--------0-----------------0-----------|--------------0-----|
-----0-----0-----0-----------0-----0--|-----------0-----0--|
--------------0--------0--------0-----|--------0-----------|
--5-----------------------------------|-----7--------------|
--------------------7-----------------|--9-----------------|
--------------------------------------|--------------------|


  Q    E  E  E  E   Q     E  E  E  E   
----------0-----0---------0-----0-----|
-------------0-----(7)-------7-----7--|
-------0------------------------------|
--------------------------------------|
--7-----------------7-----------------|
--------------------------------------|


   Solo 1 Adrian Smith                                
   Q                  E  E  E  E   Q     E  E  E  E   
----------------------0-----0------------0-----0-----|
--(7)--------------------7-----7--(7)-------7-----7--|
-----------------------------------------------------|
-----------------------------------------------------|
---7-------------------------------7-----------------|
-----------------------------------------------------|


  Q    Q    Q    Q    Q    Q       Q    Q    Q    Q    Q    Q     
--3--------------3--------------|--5--------------5--------------|
-------5--------------5---------|-------7--------------7---------|
------------5--------------5----|------------7--------------7----|
--------------------------------|--------------------------------|
--------------------------------|--------------------------------|
--------------------------------|--------------------------------|


  ^                                 ^                               
  Q.     E  E  E  Q    Q    Q       Q.     E  E  E  Q    Q    Q     
--7------7--------7--------------|--7------7--------7--------------|
--8---------8----------8---------|--8---------8----------8---------|
--9------------9------------9----|--9------------9------------9----|
---------------------------------|---------------------------------|
---------------------------------|---------------------------------|
---------------------------------|---------------------------------|


  Q    Q    Q    Q    Q    Q       Q    Q    Q    Q    Q    Q     
--3--------------3--------------|--5--------------5--------------|
-------5--------------5---------|-------7--------------7---------|
------------5--------------5----|------------7--------------7----|
--------------------------------|--------------------------------|
--------------------------------|--------------------------------|
--------------------------------|--------------------------------|


  ^                                 ^                               
  Q.     E  E  E  Q    Q    Q       Q.     E  E  E  Q    Q    Q     
--7------7--------7--------------|--7------7--------7--------------|
--8---------8----------8---------|--8---------8----------8---------|
--9------------9------------9----|--9------------9------------9----|
---------------------------------|---------------------------------|
---------------------------------|---------------------------------|
---------------------------------|---------------------------------|


  Q    Q    Q    Q    Q    Q       Q    Q    Q    Q    Q    Q     
--3--------------3--------------|--5--------------5--------------|
-------5--------------5---------|-------7--------------7---------|
------------5--------------5----|------------7--------------7----|
--------------------------------|--------------------------------|
--------------------------------|--------------------------------|
--------------------------------|--------------------------------|


  ^                                 ^                               
  Q.     E  E  E  Q    Q    Q       Q.     E  E  E  Q    Q    Q     
--7------7--------7--------------|--7------7--------7--------------|
--8---------8----------8---------|--8---------8----------8---------|
--9------------9------------9----|--9------------9------------9----|
---------------------------------|---------------------------------|
---------------------------------|---------------------------------|
---------------------------------|---------------------------------|


  Q    Q    Q    Q    Q    Q       Q    Q    Q    Q    Q    Q     
--3--------------3--------------|--5--------------5--------------|
-------5--------------5---------|-------7--------------7---------|
------------5--------------5----|------------7--------------7----|
--------------------------------|--------------------------------|
--------------------------------|--------------------------------|
--------------------------------|--------------------------------|


  ^                                 ^                               
  Q.     E  E  E  Q    Q    Q       Q.     E  E  E  Q    Q    Q     
--7------7--------7--------------|--7------7--------7--------------|
--8---------8----------8---------|--8---------8----------8---------|
--9------------9------------9----|--9------------9------------9----|
---------------------------------|---------------------------------|
---------------------------------|---------------------------------|
---------------------------------|---------------------------------|


  Verso Riff                                                           
  ^                                                                    
  Q.         E  E  E  Q    Q    Q       Q    Q    Q    Q    Q    Q     
--7----------7--------7--------------|--7--------------7--------------|
--8-------------8----------8---------|-------8--------------8---------|
--9----------------9------------9----|------------7--------------7----|
-------------------------------------|--------------------------------|
-------------------------------------|--------------------------------|
-------------------------------------|--------------------------------|


  E  E  E  E  E  E  Q    Q    Q       Q    Q    Q    Q    Q    Q     
--5--------5--------5--------------|--3--------------3--------------|
-----7--------7----------7---------|-------5--------------5---------|
--------7--------7------------7----|------------5--------------5----|
-----------------------------------|--------------------------------|
-----------------------------------|--------------------------------|
-----------------------------------|--------------------------------|


  Q    Q    Q    E  E  E  E  Q       Q    Q    Q    Q    Q    Q     
--7--------------7-----------7----|--7--------------7--------------|
-------8------------8-----8-------|-------8--------------8---------|
------------9----------9----------|------------7--------------7----|
----------------------------------|--------------------------------|
----------------------------------|--------------------------------|
----------------------------------|--------------------------------|


  E  E  E  E  E  E  Q    Q    Q       Q    Q    Q    Q    Q    Q     
--5--------5--------5--------------|--3--------------3--------------|
-----7--------7----------7---------|-------5--------------5---------|
--------7--------7------------7----|------------5--------------5----|
-----------------------------------|--------------------------------|
-----------------------------------|--------------------------------|
-----------------------------------|--------------------------------|


                                                    ^               
  Q    Q    Q    E  E  E  E  Q       Q    Q    Q    Q    Q    Q     
--7--------------7-----------7----|--7--------------7--------------|
-------8------------8-----8-------|-------8---------8----8---------|
------------9----------9----------|------------7----7---------7----|
----------------------------------|--------------------------------|
----------------------------------|--------------------------------|
----------------------------------|--------------------------------|


  E  E  E  E  E  E  Q    Q    Q       Q    Q    Q    Q    Q    Q     
--5--------5--------5--------------|--3--------------3--------------|
-----7--------7----------7---------|-------5--------------5---------|
--------7--------7------------7----|------------5--------------5----|
-----------------------------------|--------------------------------|
-----------------------------------|--------------------------------|
-----------------------------------|--------------------------------|


                                                    ^               
  Q    Q    Q    E  E  E  E  Q       Q    Q    Q    Q    Q    Q     
--7--------------7-----------7----|--7--------------7--------------|
-------8------------8-----8-------|-------8---------8----8---------|
------------9----------9----------|------------7----7---------7----|
----------------------------------|--------------------------------|
----------------------------------|--------------------------------|
----------------------------------|--------------------------------|


  E  E  E  E  E  E  Q    Q    Q       Q    Q    Q    Q    Q    Q     
--5--------5--------5--------------|--3--------------3--------------|
-----7--------7----------7---------|-------5--------------5---------|
--------7--------7------------7----|------------5--------------5----|
-----------------------------------|--------------------------------|
-----------------------------------|--------------------------------|
-----------------------------------|--------------------------------|


  Break                                                               
  ^                                 ^                                 
  Q.     E  E  E  Q    Q    Q       Q.     E  E  E  Q    E  E  E  E   
--7---------7-----7--------------|--7------0-----0----------0-----0--|
--8------8-----8-------8---------|--8---------7-----7----7-----7-----|
--9-------------------------9----|--9--------------------------------|
---------------------------------|-----------------------------------|
---------------------------------|-----------------------------------|
---------------------------------|-----------------------------------|


  Riff A                                                  
  ^                 ^                                     
  Q      E  E  Q    Q    E  E  Q       E  E  E  E  E  E   
---------0---------------0----------|--------------0-----|
------------0---------------0-------|-----------0-----0--|
--0------------0----0----------0----|--------0-----------|
--9-----------------9---------------|-----7--------------|
--7-----------------7---------------|--9-----------------|
------------------------------------|--------------------|


  Q    E  E  E  E  Q    E  E  E  E     Q    E  E  Q    Q    E  E  Q     
----------0-----0-------0-----0-----|-------0---------------0----------|
-------------0-----7-------0-----0--|----------0--7------------0--7----|
-------0----------------------------|----------------------------------|
------------------------------------|--5-------------------------------|
--7---------------------------------|------------------7---------------|
------------------------------------|----------------------------------|


  Q    E  E  Q    Q    E  E  Q       E  E  E  E  E  E   
-------0---------------0----------|--------------0-----|
----------0---------------0-------|-----------0-----0--|
-------------0---------------0----|--------0-----------|
--5-------------------------------|-----7--------------|
------------------7---------------|--9-----------------|
----------------------------------|--------------------|


  Q    E  E  E  E  E  E  E  E  E  E      E   E  E  E  E  E  E  E  E  E  E  E   
----------0-----0-----0-----0-----0--|----------0-----------------0-----------|
-------------0-----7-----7-----0-----|--(7)--------0-----0-----0-----0-----0--|
-------0-----------------------------|-------0--------0-----------------0-----|
-------------------------------------|----------------------5-----------------|
--7----------------------------------|---7------------------------------------|
-------------------------------------|----------------------------------------|


  E  E  E  E  E  E  E  E  E  E  E  E     E  E  E  E  E  E   
--------0-----------------0-----------|--------------0-----|
-----0-----0-----0-----------0-----0--|-----------0-----0--|
--------------0--------0--------0-----|--------0-----------|
--5-----------------------------------|-----7--------------|
--------------------7-----------------|--9-----------------|
--------------------------------------|--------------------|


  Q    E  E  E  E  E  E  E  E  E  E      E   E  E  E  E  E  E  E  E  E  E  E   
----------0-----0-----0-----0-----0--|----------0-----------------0-----------|
-------------0-----7-----7-----0-----|--(7)--------0-----0-----0-----0-----0--|
-------0-----------------------------|-------0--------0-----------------0-----|
-------------------------------------|----------------------5-----------------|
--7----------------------------------|---7------------------------------------|
-------------------------------------|----------------------------------------|


  E  E  E  E  E  E  E  E  E  E  E  E     E  E  E  E  E  E   
--------0-----------------0-----------|--------------0-----|
-----0-----0-----0-----------0-----0--|-----------0-----0--|
--------------0--------0--------0-----|--------0-----------|
--5-----------------------------------|-----7--------------|
--------------------7-----------------|--9-----------------|
--------------------------------------|--------------------|


  Q    E  E  E  E   Q     E  E  E  E   
----------0-----0---------0-----0-----|
-------------0-----(7)-------7-----7--|
-------0------------------------------|
--------------------------------------|
--7-----------------7-----------------|
--------------------------------------|


   Solo 2 Dave Murray                                
   Q                 E  E  E  E   Q     E  E  E  E   
---------------------0-----0------------0-----0-----|
--(7)-------------------7-----7--(7)-------7-----7--|
----------------------------------------------------|
----------------------------------------------------|
---7------------------------------7-----------------|
----------------------------------------------------|


  Q    Q    Q    Q    Q    Q       Q    Q    Q    Q    Q    Q     
--3--------------3--------------|--5--------------5--------------|
-------5--------------5---------|-------7--------------7---------|
------------5--------------5----|------------7--------------7----|
--------------------------------|--------------------------------|
--------------------------------|--------------------------------|
--------------------------------|--------------------------------|


  ^                                 ^                               
  Q.     E  E  E  Q    Q    Q       Q.     E  E  E  Q    Q    Q     
--7------7--------7--------------|--7------7--------7--------------|
--8---------8----------8---------|--8---------8----------8---------|
--9------------9------------9----|--9------------9------------9----|
---------------------------------|---------------------------------|
---------------------------------|---------------------------------|
---------------------------------|---------------------------------|


  Q    Q    Q    Q    Q    Q       Q    Q    Q    Q    Q    Q     
--3--------------3--------------|--5--------------5--------------|
-------5--------------5---------|-------7--------------7---------|
------------5--------------5----|------------7--------------7----|
--------------------------------|--------------------------------|
--------------------------------|--------------------------------|
--------------------------------|--------------------------------|


  ^                                 ^                               
  Q.     E  E  E  Q    Q    Q       Q.     E  E  E  Q    Q    Q     
--7------7--------7--------------|--7------7--------7--------------|
--8---------8----------8---------|--8---------8----------8---------|
--9------------9------------9----|--9------------9------------9----|
---------------------------------|---------------------------------|
---------------------------------|---------------------------------|
---------------------------------|---------------------------------|


  Q    Q    Q    Q    Q    Q       Q    Q    Q    Q    Q    Q     
--3--------------3--------------|--5--------------5--------------|
-------5--------------5---------|-------7--------------7---------|
------------5--------------5----|------------7--------------7----|
--------------------------------|--------------------------------|
--------------------------------|--------------------------------|
--------------------------------|--------------------------------|


  ^                                 ^                               
  Q.     E  E  E  Q    Q    Q       Q.     E  E  E  Q    Q    Q     
--7------7--------7--------------|--7------7--------7--------------|
--8---------8----------8---------|--8---------8----------8---------|
--9------------9------------9----|--9------------9------------9----|
---------------------------------|---------------------------------|
---------------------------------|---------------------------------|
---------------------------------|---------------------------------|


  Q    Q    Q    Q    Q    Q       Q    Q    Q    Q    Q    Q     
--3--------------3--------------|--5--------------5--------------|
-------5--------------5---------|-------7--------------7---------|
------------5--------------5----|------------7--------------7----|
--------------------------------|--------------------------------|
--------------------------------|--------------------------------|
--------------------------------|--------------------------------|


  ^                                 ^                               
  Q.     E  E  E  Q    Q    Q       Q.     E  E  E  Q    Q    Q     
--7------7--------7--------------|--7------7--------7--------------|
--8---------8----------8---------|--8---------8----------8---------|
--9------------9------------9----|--9------------9------------9----|
---------------------------------|---------------------------------|
---------------------------------|---------------------------------|
---------------------------------|---------------------------------|


  Verso Riff                                                              
  Q          Q    Q    E  E  E  E  Q       Q    Q    Q    Q    Q    Q     
--7--------------------7-----------7----|--7--------------7--------------|
-------------8------------8-----8-------|-------8--------------8---------|
------------------9----------9----------|------------7--------------7----|
----------------------------------------|--------------------------------|
----------------------------------------|--------------------------------|
----------------------------------------|--------------------------------|


  E  E  E  E  E  E  Q    Q    Q       Q    Q    Q    Q    Q    Q     
--5--------5--------5--------------|--3--------------3--------------|
-----7--------7----------7---------|-------5--------------5---------|
--------7--------7------------7----|------------5--------------5----|
-----------------------------------|--------------------------------|
-----------------------------------|--------------------------------|
-----------------------------------|--------------------------------|


  Q    Q    Q    E  E  E  E  Q       Q    Q    Q    Q    Q    Q     
--7--------------7-----------7----|--7--------------7--------------|
-------8------------8-----8-------|-------8--------------8---------|
------------9----------9----------|------------7--------------7----|
----------------------------------|--------------------------------|
----------------------------------|--------------------------------|
----------------------------------|--------------------------------|


  E  E  E  E  E  E  Q    Q    Q       Q    Q    Q    Q    Q    Q     
--5--------5--------5--------------|--3--------------3--------------|
-----7--------7----------7---------|-------5--------------5---------|
--------7--------7------------7----|------------5--------------5----|
-----------------------------------|--------------------------------|
-----------------------------------|--------------------------------|
-----------------------------------|--------------------------------|


                                                    ^               
  Q    Q    Q    E  E  E  E  Q       Q    Q    Q    Q    Q    Q     
--7--------------7-----------7----|--7--------------7--------------|
-------8------------8-----8-------|-------8---------8----8---------|
------------9----------9----------|------------7----7---------7----|
----------------------------------|--------------------------------|
----------------------------------|--------------------------------|
----------------------------------|--------------------------------|


  E  E  E  E  E  E  Q    Q    Q       Q    Q    Q    Q    Q    Q     
--5--------5--------5--------------|--3--------------3--------------|
-----7--------7----------7---------|-------5--------------5---------|
--------7--------7------------7----|------------5--------------5----|
-----------------------------------|--------------------------------|
-----------------------------------|--------------------------------|
-----------------------------------|--------------------------------|


                                                    ^               
  Q    Q    Q    E  E  E  E  Q       Q    Q    Q    Q    Q    Q     
--7--------------7-----------7----|--7--------------7--------------|
-------8------------8-----8-------|-------8---------8----8---------|
------------9----------9----------|------------7----7---------7----|
----------------------------------|--------------------------------|
----------------------------------|--------------------------------|
----------------------------------|--------------------------------|


  E  E  E  E  E  E  Q    Q    Q       Q    Q    Q    Q    Q    Q     
--5--------5--------5--------------|--3--------------3--------------|
-----7--------7----------7---------|-------5--------------5---------|
--------7--------7------------7----|------------5--------------5----|
-----------------------------------|--------------------------------|
-----------------------------------|--------------------------------|
-----------------------------------|--------------------------------|


  Break                                                               
  ^                                 ^                                 
  Q.     E  E  E  Q    Q    Q       Q.     E  E  E  Q    E  E  E  E   
--7---------7-----7--------------|--7------0-----0----------0-----0--|
--8------8-----8-------8---------|--8---------7-----7----7-----7-----|
--9-------------------------9----|--9--------------------------------|
---------------------------------|-----------------------------------|
---------------------------------|-----------------------------------|
---------------------------------|-----------------------------------|


  Riff A                                                  
  ^                 ^                                     
  Q      E  E  Q    Q    E  E  Q       E  E  E  E  E  E   
---------0---------------0----------|--------------0-----|
------------0---------------0-------|-----------0-----0--|
--0------------0----0----------0----|--------0-----------|
--9-----------------9---------------|-----7--------------|
--7-----------------7---------------|--9-----------------|
------------------------------------|--------------------|


  Q    E  E  E  E  Q    E  E  E  E     Q    E  E  Q    Q    E  E  Q     
----------0-----0-------0-----0-----|-------0---------------0----------|
-------------0-----7-------0-----0--|----------0--7------------0--7----|
-------0----------------------------|----------------------------------|
------------------------------------|--5-------------------------------|
--7---------------------------------|------------------7---------------|
------------------------------------|----------------------------------|


  Q    E  E  Q    Q    E  E  Q       E  E  E  E  E  E   
-------0---------------0----------|--------------0-----|
----------0---------------0-------|-----------0-----0--|
-------------0---------------0----|--------0-----------|
--5-------------------------------|-----7--------------|
------------------7---------------|--9-----------------|
----------------------------------|--------------------|


  Q    E  E  E  E  E  E  E  E  E  E      E   E  E  E  E  E  E  E  E  E  E  E   
----------0-----0-----0-----0-----0--|----------0-----------------0-----------|
-------------0-----7-----7-----0-----|--(7)--------0-----0-----0-----0-----0--|
-------0-----------------------------|-------0--------0-----------------0-----|
-------------------------------------|----------------------5-----------------|
--7----------------------------------|---7------------------------------------|
-------------------------------------|----------------------------------------|


  Q    E  E  Q    Q    E  E  Q       E  E  E  E  E  E   
-------0---------------0----------|--------------0-----|
----------0---------------0-------|-----------0-----0--|
-------------0---------------0----|--------0-----------|
--5-------------------------------|-----7--------------|
------------------7---------------|--9-----------------|
----------------------------------|--------------------|


  Q    E  E  E  E  E  E  E  E  E  E      E   E  E  E  E  E  E  E  E  E  E  E   
----------0-----0-----0-----0-----0--|----------0-----------------0-----------|
-------------0-----7-----7-----0-----|--(7)--------0-----0-----0-----0-----0--|
-------0-----------------------------|-------0--------0-----------------0-----|
-------------------------------------|----------------------5-----------------|
--7----------------------------------|---7------------------------------------|
-------------------------------------|----------------------------------------|


  Outro                                                                      
                                                           ^                 
  Q     E  E  Q    Q    E  E  Q       E  E  E  E  E  E     W.                
--------0---------------0----------|--------------0-----|--0----------------|
-----------0---------------0-------|-----------0-----0--|--0----------------|
--------------0---------------0----|--------0-----------|--9----------------|
--5--------------------------------|-----7--------------|--9----------------|
-------------------7---------------|--9-----------------|--7----------------|
-----------------------------------|--------------------|-------------------|


                      ^                                      
  W.                  W.                  W.                 
-------------------|--0----------------|--L----------------||
-------------------|--0----------------|--L----------------||
-------------------|--9----------------|--L----------------||
-------------------|--9----------------|--L----------------||
-------------------|--7----------------|--L----------------||
-------------------|-------------------|-------------------||




- Voice Melody:
                                
Bruce Dickinson

                      Verso Riff                               
                                  The on  ly  place      where 
  W.                  Q.          E   E   E   Q    Q     Q     
-------------------|-------------10--12--10--12---------------|
-------------------|------------------------------------12----|
-------------------|------------------------------------------|
-------------------|------------------------------------------|
-------------------|------------------------------------------|
-------------------|------------------------------------------|


   yo    ou    can   dream,                     li  ving here      is    
   Q     Q     Q     H        Q       H         E   E    H         Q     
--10-------------------------------|------------------------------------|
--------12----------12-------------|-----------10-------10--------10----|
--------------12-------------------|---------------12-------------------|
-----------------------------------|------------------------------------|
-----------------------------------|------------------------------------|
-----------------------------------|------------------------------------|


  not  what it   se  ee  ms.                   Ship of  white          
  Q    Q    Q    E   E   H           H         E    E   Q    H         
--7----5----3----5s--3s--0--------|-----------12---10--12-------------|
----------------------------------|-----------------------------------|
----------------------------------|-----------------------------------|
----------------------------------|-----------------------------------|
----------------------------------|-----------------------------------|
----------------------------------|-----------------------------------|


   light in    the   sky,                     no  bo  dy  there     to    
   Q     Q     Q     H        Q       Q.      E   E   E   H         Q     
--10-------------------------------|-------------------------------------|
--------12----------12-------------|-------------10------10--------10----|
--------------12-------------------|---------12------12------------------|
-----------------------------------|-------------------------------------|
-----------------------------------|-------------------------------------|
-----------------------------------|-------------------------------------|


  re   ea   son  why yy  yy.                   Here I   am,          I'm 
  Q    Q    Q    E   E   H           H         E    E   Q    Q.      E   
--7----5----3----5s--3s--0--------|-----------12---10--12---------------|
----------------------------------|---------------------------------12--|
----------------------------------|-------------------------------------|
----------------------------------|-------------------------------------|
----------------------------------|-------------------------------------|
----------------------------------|-------------------------------------|


   not   rea   lly   there,                   sm  il  ing fa        ces   
   Q     Q     Q     H        Q       Q.      E   E   E   H         Q     
--10-------------------------------|-------------------------------------|
--------12----------12-------------|-------------10------10--------------|
--------------12-------------------|---------12------12------------12----|
-----------------------------------|-------------------------------------|
-----------------------------------|-------------------------------------|
-----------------------------------|-------------------------------------|


   e     ver   so    ra  aa  re.       
   Q     Q     Q     E   E   H         
--------------------------------------|
--12----10----------10s--8s--5--------|
--------------12----------------------|
--------------------------------------|
--------------------------------------|
--------------------------------------|


            A   let's    walk       in       de    ee    pest  space,         
  H         E   S     S  Q    Q     Q        Q     Q     Q     H        Q     
-----------12--10-----L-12---------------|--10-------------------------------|
-----------------------------------12----|--------12----------12-------------|
-----------------------------------------|--------------12-------------------|
-----------------------------------------|-----------------------------------|
-----------------------------------------|-----------------------------------|
-----------------------------------------|-----------------------------------|


            li  ving    here      just  
  H         E   S    S  H         Q     
---------------------------------------|
-----------10----------10--------------|
---------------12----L-----------12----|
---------------------------------------|
---------------------------------------|
---------------------------------------|


                                               Break                            
   is    sn't  the   pla  ee  aa   ee  aa      aa                    ee  aa ee  
   Q     Q     Q     E    E   E    E   Q       H.           H        E   S  S   
--------------------------------------------|--7------------L--------5s--7s-5--|
--12----10----------10s--12s--8s--10s--5----|----------------------------------|
--------------12----------------------------|----------------------------------|
--------------------------------------------|----------------------------------|
--------------------------------------------|----------------------------------|
--------------------------------------------|----------------------------------|


  ace.                                                           
  H.           H.              W.                  H.            
----------------------------|-------------------|---------------|
--5-------------------------|-------------------|---------------|
----------------------------|-------------------|---------------|
----------------------------|-------------------|---------------|
----------------------------|-------------------|---------------|
----------------------------|-------------------|---------------|


                                               oo           oo        
  W.                  W.                  Q    H.           H         
-------------------|-------------------|-------7------------5--------|
-------------------|-------------------|-----------------------------|
-------------------|-------------------|-----------------------------|
-------------------|-------------------|-----------------------------|
-------------------|-------------------|-----------------------------|
-------------------|-------------------|-----------------------------|


  oo  oo  oo    oo       oooh                                           
  E   E   Q     Q        H.           H.              W.                
--5s--7s--5s----3s----|--0-------------------------|-------------------|
----------------------|----------------------------|-------------------|
----------------------|----------------------------|-------------------|
----------------------|----------------------------|-------------------|
----------------------|----------------------------|-------------------|
----------------------|----------------------------|-------------------|


  Verso Riff                                                                   
              Stalks    of  light             come  from  the   ground,        
  H           S      S  E   H        Q        Q     Q     Q     H        Q     
-------------12------L-10--12-------------|--10-------------------------------|
------------------------------------------|--------12----------12-------------|
------------------------------------------|--------------12-------------------|
------------------------------------------|-----------------------------------|
------------------------------------------|-----------------------------------|
------------------------------------------|-----------------------------------|


            when I   cry       there   is   n't  a    so  uu  nd.       
  H         E    E   H         Q       Q    Q    Q    E   E   H         
------------------------------------|--7----5----3----5s--3s--0--------|
-----------10-------10--------10----|----------------------------------|
----------------12------------------|----------------------------------|
------------------------------------|----------------------------------|
------------------------------------|----------------------------------|
------------------------------------|----------------------------------|


            All my  feel      ings     can   not   be    held,          
  H         E   E   H         Q        Q     Q     Q     H        Q     
-----------12--10--12--------------|--10-------------------------------|
-----------------------------12----|--------12----------12-------------|
-----------------------------------|--------------12-------------------|
-----------------------------------|-----------------------------------|
-----------------------------------|-----------------------------------|
-----------------------------------|-----------------------------------|


          I'm ha  ppy in        my      ne   ew   strange wo  oo  rld.      
  Q.      E   E   E   H         Q       Q    Q    Q       E   E   H         
-------------------------------------|--7----5----3-------5s--3s--0--------|
-------------10------10--------10----|-------------------------------------|
---------12------12------------------|-------------------------------------|
-------------------------------------|-------------------------------------|
-------------------------------------|-------------------------------------|
-------------------------------------|-------------------------------------|


            Shades of  gre       een      gra       sses  twine,         
  H         E      E   H         Q        H         Q     H        Q     
-----------12-----10--12--------15----|--14--------------12-------------|
--------------------------------------|------------15-------------------|
--------------------------------------|---------------------------------|
--------------------------------------|---------------------------------|
--------------------------------------|---------------------------------|
--------------------------------------|---------------------------------|


            gi  rls drink     ing      pla   as    sma   wi  ii  ne.       
  H         E   E   H         Q        Q     Q     Q     E   E   H         
-----------------------------------|--------------------------------------|
-----------------------------------|--12----10----------10s--8s--5--------|
-----------14--12--14--------12----|--------------12----------------------|
-----------------------------------|--------------------------------------|
-----------------------------------|--------------------------------------|
-----------------------------------|--------------------------------------|


          A   look at  love,      a        dre   eam   un    folds,         
  Q.      E   E    E   Q    Q     Q        Q     Q     Q     H        Q     
---------10--12---10--12---------------|--10-------------------------------|
---------------------------------12----|--------12----------12-------------|
---------------------------------------|--------------12-------------------|
---------------------------------------|-----------------------------------|
---------------------------------------|-----------------------------------|
---------------------------------------|-----------------------------------|


            liv ing here,     you'll 
  H         E   E   H         Q      
------------------------------------|
-----------10------10---------------|
---------------12------------12-----|
------------------------------------|
------------------------------------|
------------------------------------|


                                               Break                            
   ne    ver   grow  oo   oo  oo   oo  oo      oooo                  oo  oo oo  
   Q     Q     Q     E    E   E    E   Q       H.           H        E   S  S   
--------------------------------------------|--7------------L--------5s--7s-5--|
--12----10----------10s--12s--8s--10s--5----|----------------------------------|
--------------12----------------------------|----------------------------------|
--------------------------------------------|----------------------------------|
--------------------------------------------|----------------------------------|
--------------------------------------------|----------------------------------|


  old.                                                           
  H.           H.              W.                  H.            
----------------------------|-------------------|---------------|
--5-------------------------|-------------------|---------------|
----------------------------|-------------------|---------------|
----------------------------|-------------------|---------------|
----------------------------|-------------------|---------------|
----------------------------|-------------------|---------------|


                                               oo           oo        
  W.                  W.                  Q    H.           H         
-------------------|-------------------|-------7------------5--------|
-------------------|-------------------|-----------------------------|
-------------------|-------------------|-----------------------------|
-------------------|-------------------|-----------------------------|
-------------------|-------------------|-----------------------------|
-------------------|-------------------|-----------------------------|


  oo  ye  ee    ee       eeh                                            
  E   E   Q     Q        H.           H.              W.                
--5s--7s--5s----3s----|--0-------------------------|-------------------|
----------------------|----------------------------|-------------------|
----------------------|----------------------------|-------------------|
----------------------|----------------------------|-------------------|
----------------------|----------------------------|-------------------|
----------------------|----------------------------|-------------------|


                                           Don't you   hear     me   caa   
  W.                  H.              Q    E.    T   T H        Q    Q     
-------------------|---------------|-------7-----------5--------7---------|
-------------------|---------------|-------------8---L---------------8----|
-------------------|---------------|--------------------------------------|
-------------------|---------------|--------------------------------------|
-------------------|---------------|--------------------------------------|
-------------------|---------------|--------------------------------------|


                                Outro                      
            aall?                                          
  H         W                   W                H         
-----------------------------|----------------------------|
--Ls--------5----------------|--L-------------------------|
-----------------------------|----------------------------|
-----------------------------|----------------------------|
-----------------------------|----------------------------|
-----------------------------|----------------------------|


   uuu   uuu    uuu      uuuh                                   
   Q     Q      Q        W.                   W.                
--10s----7s----10----|--10b----------------|-------------------|
---------------------|---------------------|-------------------|
---------------------|---------------------|-------------------|
---------------------|---------------------|-------------------|
---------------------|---------------------|-------------------|
---------------------|---------------------|-------------------|




The Soundhouse Tapes Solos:
                                

                          Solo 1 Dave Murray                                    
     W.                   E                  E    H.            Q.        S  S  
E||-------------------|--------------------------------------------------------|
B||-------------------|--12----------------------------------------------------|
G||-------------------|---------------------14b---L------------14br------14-12-|
D||-------------------|--------------------------------------------------------|
A||-------------------|--------------------------------------------------------|
E||-------------------|--------------------------------------------------------|


   E    H.             Q       E   Q         E    Q      W                 E    
-----------------------------------------|-------------------------------------|
----------------------------------20b----|--20b--20b-----L----------------20b--|
--19b--19b------------19pb----16---------|-------------------------------------|
-----------------------------------------|-------------------------------------|
-----------------------------------------|-------------------------------------|
-----------------------------------------|-------------------------------------|


   H         E   E.    E   E   E   E   E.    
--------------------------------------------|
---L---------L--20b---20--19--17------------|
----------------------------------19--19b---|
--------------------------------------------|
--------------------------------------------|
--------------------------------------------|


   H.             H          E   E      
---------------------------------------|
-----------------17b---------L--17pbr--|
--19b----------------------------------|
---------------------------------------|
---------------------------------------|
---------------------------------------|


   H         E   E   E   E   E    E   E   E   
---------------------------------------------|
---L--------17--15---------------------------|
--------------------16--14-------16--14------|
----------------------------16b----------17--|
---------------------------------------------|
---------------------------------------------|


   E   E   H          S   S  S  S  Q.        S  S  
--------------------------------------------------|
---------------------15--12-----------------------|
--14------14b--------14b----14-12-14br------14-12-|
------17------------------------------------------|
--------------------------------------------------|
--------------------------------------------------|


   S  S  E   E   E   E   E   E   E      E   E   Q      
------------------------------------------------------|
-----------------------------------------------19b----|
-----14-12---------------------------------16---------|
--14--------14--12------------------17g19-------------|
--------------------14--12----------------------------|
----------------------------15--14--------------------|


   E   E   E   H             E   E   E   E   E   
------------------------------------------------|
--19--17--------------------------------19--20--|
----------19--19b---------------19--21----------|
-------------------------19g21------------------|
------------------------------------------------|
------------------------------------------------|


   |---3--|                                         
   Q      H          Q     S  E.    E   E   E   E   
---------------------------------------------------|
--22b----22b---------L-----L-22b---22--20--22------|
-----------------------------------------------23--|
---------------------------------------------------|
---------------------------------------------------|
---------------------------------------------------|


   H.                E   E   E   Q.       
-----------------------------------------|
--20~-------------------22--20-----------|
-----------------16g19----------19~------|
-----------------------------------------|
-----------------------------------------|
-----------------------------------------|


   E   E    H         E   E    Q     Q      
-------------------------------------------|
-------------------------------------------|
--14--12~---L--------12--11~---L----12b----|
-------------------------------------------|
-------------------------------------------|
-------------------------------------------|


   E    E    H        Q     E   E   S  S  E    
----------------------------------------------|
----------------------------------------------|
--12b--12b---L---------------------11----17b--|
---------------------------12--14-----12------|
----------------------------------------------|
----------------------------------------------|


   H         Q      Q      E   E   E   E    
-------------------------------------------|
--------------------------15---------------|
---L--------17b----17b--------16--14-------|
--------------------------------------16b--|
-------------------------------------------|
-------------------------------------------|


   E   E   E   E   E.    Q.       E.   E     E    
-------------------------------------------------|
-------------------------------------------------|
--16--14----------14b---14~-------L---12p~--11~--|
----------17--16---------------------------------|
-------------------------------------------------|
-------------------------------------------------|


   H         E  S   S Q.      E   E  E      W                 H         
----------------------------------------|------------------------------|
----------------------------------------|------------------------------|
---L---------L--9h-11-9~----------------|------------------------------|
------------------------------7---------|------------------------------|
---------------------------------10--9--|--10~-------------------------|
----------------------------------------|------------------------------|



  Solo 2 Dave Murray                
  W                  Q      E   E   
-----------------------------------|
-----------------------------------|
-----------------------------------|
-------------------------------12--|
--------------------------/14------|
-----------------------------------|


   H          E   E   E     Q     S  S  E   E    
------------------------------------------------|
------------------------------------------------|
---------------------14br--14----12----14--12~--|
--14~--------12--14-----------------14----------|
------------------------------------------------|
------------------------------------------------|


   H         E   E   E   E   E   E      Q     
---------------------------------------------|
---------------------------------------------|
---L-----------------------------------------|
------------14--12---------------------------|
--------------------14--12-------------------|
----------------------------15--12--12g15----|


   H          E   E   E   E   H         
---------------------------------------|
---------------------------------------|
---------------------------------------|
---------------------------------------|
---------------------------------------|
--12~---------L--12--12---L\-----------|


   T  T  S. S. H         Q     T  T  S. S. E.   T  T  
-----------------------------------------------------|
-----15-17-15--------------------15-17-15---------15-|
--16----------16~-------------16----------16---16----|
-----------------------------------------------------|
-----------------------------------------------------|
-----------------------------------------------------|


                                            |----3----|     
   S. S. S. Q.       S  E.   Q     E.       S    S    S  T  
----------------------------17----15pbr---(14)-(12)--------|
--17-15----17~-------L-15---------------------------(15)---|
--------16-------------------------------------------------|
-----------------------------------------------------------|
-----------------------------------------------------------|
-----------------------------------------------------------|


   T  S.  S  S  S  S  E    Q     E   E   E   E   E    E    
----------------------------------------------------------|
--15------------------------------------------------------|
-----14b-14-12----14-12~---L----------------12--14b--14b--|
---------------14-------------------12--14----------------|
--------------------------------14------------------------|
----------------------------------------------------------|


   E    S  S  S  S  S   E.   E   E   E   E   E    E   E   
---------------------------------------------------------|
---------------------------------------------------------|
--14b--14-12----14-12~--L-----------------------/12------|
-------------14-------------14--12------12-----------14--|
------------------------------------14------14-----------|
---------------------------------------------------------|


   H          E   E   S  E   S  T  T  S. S. E   E   
---------------------------------------------------|
----------------------------------15-17-15---------|
-------------------------------16----------16------|
--14~---------L--14--14--L\--------------------17--|
---------------------------------------------------|
---------------------------------------------------|


   Q      Q      Q      Q.        E   E   E    
----------------------------------------------|
--22b----22b----22b----22br------20------22b--|
-------------------------------------21-------|
----------------------------------------------|
----------------------------------------------|
----------------------------------------------|


                                                      W  
   Q       E   E   E   E    E   S  E   E    E   S  S  S  
--------------------------------------------------------|
--22br----20------20--22b--22--20-----22b--22--20-------|
--------------21------------------21--------------21-21-|
--------------------------------------------------------|
--------------------------------------------------------|
--------------------------------------------------------|


   W  W                                                     
   S  S  Q      E    E   E   E.    S  S  S  E     S  E   S  
-----------------------------------------------------------|
----------------------------------12-----------------------|
--21-21-21~-----L\------12--14b------14-12-14br--12-----12-|
--------------------14------------------------------14-----|
-----------------------------------------------------------|
-----------------------------------------------------------|


   H         E   E   E   E    E   E      Q     
----------------------------------------------|
----------------------------------------------|
---L------------------------------------------|
------------14--12----------------------------|
--------------------14--12s--10---------------|
---------------------------------12--10g12----|


      Q.      E   E   S  S  S  S  E  E   S  S  S  S  E   
--------------------------------------------------------|
--------------------------------------------------------|
---------------------------------12-----------------12--|
---------------------------12-14-12-----------12-14-12--|
---------------------12-14--------------12-14-----------|
--10g12-------L\----------------------------------------|


  H         E.   S  E   E   E  E   E.    S  
-------------------------------------------|
-------------------------------------------|
-----------14b-----14--12---------14br-----|
---------------------------14--------------|
-------------------------------------------|
-------------------------------------------|


   T   T   H         E   E   E.      E   E   E    E    
------------------------------------------------------|
------------------------------------------------------|
--14s-16~--L---------L---L\-------------12--14b--14b--|
---------------------------------10g12----------------|
------------------------------------------------------|
------------------------------------------------------|


   Q.        E   E   Q        E   E   E   E   E    
--------------------------------------------------|
----------------15--------------------------------|
--14br-------L------14pbr----12-------------------|
---------------------------------14--12-----------|
-----------------------------------------14---L\--|
--------------------------------------------------|


   H.            H.              W.                  W.                
------------------------------|-------------------|-------------------|
------------------------------|-------------------|-------------------|
------------------------------|-------------------|-------------------|
------------------------------|-------------------|-------------------|
--10~-------------------------|-------------------|-------------------|
------------------------------|-------------------|-------------------|




Duration Legend
---------------
W - whole
H - half
Q - quarter
E - 8th
S - 16th
T - 32nd
X - 64th
. - note dotted
|-n-|  - n-tuplets


Tablature Legend
----------------
L - tied note
x - dead note
g - grace note
(n) - ghost note
> - accentuded note
NH - natural harmonic
AH - artificial harmonic
TH - tapped harmonic
SH - semi harmonic
PH - pitch harmonic
h - hammer on
p - pull off
b - bend
br - bendRelease
pb - preBend
pbr - preBendRelease
brb - bendReleaseBend
\n/ - tremolo bar dip
\n - tremolo bar dive
-/n - tremolo bar Release up
/n\ - tremolo bar inverted dip
/n - tremolo bar return
-\n - tremolo bar Release down
S - shift slide
s - legato slide
/ -  slide into from below or out of upwards
\ -  slide into from above or out of downwards
~ - vibrato
W - wide vibrato
tr - trill
TP - tremolo picking
T - tapping
S - slap
P - pop
< - fade in
^ - brush up
v - brush down
Suggest correction
Creating personal tab
Creating personal tab
You can edit any tab online and save it as your Personal.

You can edit, replace or remove any tab part or add personal notes – all changes will be seen only by you.

Personal tabs can be accessed anytime from any device, even offline.
Learn more »
comments
print report bad tab
guest
You may want to rate the tab now too:
select rating
Wanna post a correction for this tab? Suggest correction