Oops, an error
Loading. Please wait.

Sun And Steel Bass Tab

version 1
version 1

Whole song

Interactive

1,755 views 1 this week
2 commentsread comments
1 2 3 4 5
excellent!
x 3
add to favorites
launch autoscroll
font size
0
reset
guitar tuner
Tab Pro tools
  • play this tab
  • loop segment
  • change instrument
  • show fretboard
  • metronome
Autoscroll
slow
fast
+/-
esc
set tempo
stop
Contributor
Song   : Sun & Steel
Artist : Iron Maiden
Album  : Trooper

|---------------------------------------------------------------------------------|
|---7---------7-----7-----------------------7---------------------7---------------|
|-9---9-7---9---9-7---9-999-999-999-999-999---9-999-999-999-999-7---9-999-999-999-|
|---------------------------------------------------------------------------------|
                                      Verse
-----------------------------------------------------------------------------------|
--------7-------------------------7------------------------------------------------|
999-999---9-999-999-999-999-999-9---9-7-777-777-777-777-777-777-777-777-777-777-77-|
-----------------------------------------------------------------------------------|

----------------------------------------------------------------------------------|
------------7-----7-----------------------7-------------------------7-------------|
7-777-777-9---9-7---9-999-999-999-999-999---9-999-999-999-999-999-9---9-7-777-777-|
----------------------------------------------------------------------------------|

-----------------------------------------------------------------------------------|
----------------------------------------------7-----7-----------------------7------|
777-777-777-777-777-777-777-777-777-777-777-9---9-7---9-999-999-999-999-999---9-99-|
-----------------------------------------------------------------------------------|
                    Chorus
------------------|----------------------------------------------------------------|
------------------|----------------------------------------------------------------|
9-999-999-999-999-|----------------------------------------------------------------|
------------------|-5-555-555-555-555-555-555-555-3-333-333-333-333-333-333-333-33-|

---------------------------7-5-----------------------5555-7-5-4--------------------|
---------------------5h7p5-----7-5------------------------------5------------------|
-5-555-555-555-555-5---------------3-3-3-3-3-3-3-3-3-------------------------------|
------------------------------------------------------------------5-555-555-555-55-|

----------------------------------------------------------------------------------|
----------------------------------------------------------------5-5-5-7-5---------|
--------------------------------------------5-5-5-5-5-5-5-5-5-5-----------7-5-3-3-|
5-555-555-555-3-3-3-3-3-3-3-3-3-3-3-3-3-3-3---------------------------------------|

------------5555-7-5-5-7-|---------------------------------------------------------|
-------------------------|-7-----------------------7-------------------------7-----|
3-3-3-3-3-3--------------|---9-999-999-999-999-999---9-999-999-999-999-999-9---9-7-|
-------------------------|---------------------------------------------------------|
 Verse
-----------------------------------------------------------------------------------|
------------------------------------------------------7-----7----------------------|
777-777-777-777-777-777-777-777-777-777-777-777-777-9---9-7---9-999-999-999-999-99-|
-----------------------------------------------------------------------------------|

----------------------------------------------------------------------------------|
--7-------------------------7-----------------------------------------------------|
9---9-999-999-999-999-999-9---9-7-777-777-777-777-777-777-777-777-777-777-777-777-|
----------------------------------------------------------------------------------|
                                                               Chorus
------------------------------------------------------------|----------------------|
------7-----7-----------------------7-----------------------|----------------------|
777-9---9-7---9-999-999-999-999-999---9-999-999-999-999-999-|----------------------|
------------------------------------------------------------|-5-555-555-555-555-55-|

----------------------------------------------------------------------7-5---------|
----------------------------------------------------------------5h7p5-----7-5-----|
----------------------------------------5-555-555-555-555-555-5---------------3-3-|
5-555-555-3-333-333-333-333-333-333-333-------------------------------------------|

-------------5555-7-5-4-----------------------------------------------------------|
------------------------5---------------------------------------------------------|
3-3-3-3-3-3-3---------------------------------------------------------------------|
--------------------------5-555-555-555-555-555-555-555-3-333-333-333-333-333-333-|

-----------------------------------------------------7777-5-4---5-4-|--------------|
--------------------------------------------------------------5-----|--------------|
----555-555-555-555-555-555-555-555-3-3-3-3-3-3-3--3----------------|-7-777-777-77-|
333-----------------------------------------------------------------|--------------|

-----------------------------------------------------------------------------------|
-----------------------------------------------------------------------------------|
7-777-777-777-777-5-555-555-555-555-555-555-555-4-444-444-444-444-444-444-444-3-33-|
-----------------------------------------------------------------------------------|

-----------------------------------------------------------------------------------|
-----------------------------------------------------------------------------------|
3-333-333-5-555-555-555-7-777-777-777-777-777-777-777-5-555-555-555-555-555-555-55-|
-----------------------------------------------------------------------------------|
                                                                 Solo
-----------------------------------------------------------------------------------|
-----------------------------------------------------------------------------------|
555-4-444-444-444-444-444-444-444-3-333-333-333-5-555-555-555-9-999-999-999-999-99-|
-----------------------------------------------------------------------------------|

----------------------------------------------------------------------------------|
----------------------------------------------------------------------------------|
9-999--7-9-999-999-999-999-999-999-7-999-999-999-999-999-999-7-9-9-9-10-10-10-11--|
----------------------------------------------------------------------------------|
                                              Chorus
--------------------------------------------|-------------------------------------|
--------------------------------------------|-------------------------------------|
11-11-12-12-12-13-14---10-11-12-13-14-15-16-|-------------------------------------|
--------------------------------------------|-5-555-555-555-555-555-555-555-3-333-|

------------------------------------------------------7-5-------------------------|
------------------------------------------------5h7p5-----7-5---------------------|
------------------------5-555-555-555-555-555-5---------------3-3-3-3-3-3-3-3-3-3-|
333-333-333-333-333-333-----------------------------------------------------------|

-5555-7-5-4-----------------------------------------------------------------------|
------------5---------------------------------------------------------------------|
--------------------------------------------------------------------------555-555-|
--------------5-555-555-555-555-555-555-555-3-333-333-333-333-333-333-333---------|

------------------------------------------7777-5-4---5-4---------------------------|
---------------------------------------------------5-------------------------------|
555-555-555-555-555-555-3-3-3-3-3-3-3-3-3------------------------------------------|
---------------------------------------------------------5-555-555-555-555-555-555-|

-----------------------------------------------------------------------------------|
-----------------------------------------------------------------------------------|
----------------------------------5-555-555-555-555-555-5555-555-555-555-3-3-3-3-3-|
555-3-333-333-333-333-333-333-333--------------------------------------------------|

-----------5555-7-5-4--------------------------------------------------------------|
----------------------5------------------------------------------------------------|
-3-3-3-3-3-------------------------------------------------------------------------|
------------------------5-555-555-555-555-555-555-555-3-333-333-333-333-333-333-33-|

---------------------------------------------------------------------------------|
---------------------------5-5-5-4-4-4-------------------------------------------|
--5-555-555-555--5---3------------------3--0---0-0-0-0-0-0-0-0-0-0-0-0-0-0-0-0---|
3--------------------------------------------------------------------------------|
comments
We did not receive enough feedback on this tab! Please rate:
print report bad tab
1 2 3 4 5
2 comments total.
+1 reply
maxpowweer wrote on January 30 2012, 10:25 am

Good tab 5/5
Tiny correction, the album is Piece of Mind

+1 reply
akarith wrote on July 15 2012, 11:37 am

Fantastic tab, 5/5.

However, during the chorus I'm fairly certain he plays gallops all the way through.

I want to post or [tab]
guest
You may want to rate the tab now too:
select rating
Please do not post tabs as comments. Select "correction" instead!