Oops, an error
Loading. Please wait.

Tailgunner Bass Tab

version 1
version 1

Whole song

Interactive

3,941 views 1 this week
no commentswrite comment
1 2 3 4 5
x 3
add to favorites
launch autoscroll
font size
0
reset
guitar tuner
Autoscroll
slow
fast
+/-
esc
set tempo
stop
Help us to improve Ultimate-Guitar.com Take our survey!
×
Author
Iron Maiden - Tailgunner


|-------------------|--3h4-4-4-3----|-------------------|--3h4-4-4-3----|
|*-4-4-4-4-4-4-4-4-*|*-----------4-*|*-4-4-4-4-4-4-4-4-*|*-----------4-*|
|*-----------------*|*-------------*|*-----------------*|*-------------*|
|-------------------|---------------|-------------------|---------------|
Play 4x Play 3x Play 2x Play 3x

|-------------------|-------------------|-------------------|--3h4-4-4-3----|
|*-4-4-4-4-4-4-4-4-*|*-2-2-2-2-2-2-2-2-*|*-4-4-4-4-4-4-4-4-*|*-----------4-*|
|*-----------------*|*-----------------*|*-----------------*|*-------------*|
|-------------------|-------------------|-------------------|---------------|
Play 2x, slide to Play 4x, slide to Play 4x Play 3x
next bar next bar

|-------------------|--3h4-4-4-3----|-------------------|-------------------|
|*-4-4-4-4-4-4-4-4-*|*-----------4-*|*-4-4-4-4-4-4-4-4-*|*-2-2-2-2-2-2-2-2-*|
|*-----------------*|*-------------*|*-----------------*|*-----------------*|
|-------------------|---------------|-------------------|-------------------|
Play 2x Play 3x Play 2x, slide to Play 4x, slide to
next bar next bar

|-------------------|--3h4-4-4-3----|-------------------|--3h4-4-4-3----|
|*-4-4-4-4-4-4-4-4-*|*-----------4-*|*-4-4-4-4-4-4-4-4-*|*-----------4-*|
|*-----------------*|*-------------*|*-----------------*|*-------------*|
|-------------------|---------------|-------------------|---------------|
Play 4x Lyrics enter Play 2x Play 3x
Play 3x

|-------------------|-------------------|-------------------|--3h4-4-4-3----|
|*-4-4-4-4-4-4-4-4-*|*-2-2-2-2-2-2-2-2-*|*-4-4-4-4-4-4-4-4-*|*-----------4-*|
|*-----------------*|*-----------------*|*-----------------*|*-------------*|
|-------------------|-------------------|-------------------|---------------|
Play 2x, slide to Play 4x, slide to Play 4x Play 3x
next bar next bar

|-------------------|--3h4-4-4-3----|-------------------|-------------------|
|*-4-4-4-4-4-4-4-4-*|*-----------4-*|*-4-4-4-4-4-4-4-4-*|*-2-2-2-2-2-2-2-2-*|
|*-----------------*|*-------------*|*-----------------*|*-----------------*|
|-------------------|---------------|-------------------|-------------------|
Play 2x Play 3x Play 2x, slide to Play 4x, slide to
next bar next bar

|-------------------|
|*-4-4-4-4-4-4-4-4-*|
|*-----------------*|
|-------------------|
Play 4x

|----------------------------------------------------------------------|
|*-5-5-5-7-7-7-5-5-5-7-7-7-9-9-5---------------------------------------|
|*-------------------------------8-8-8-10-10-10-8-8-8-10-10-10-12-12-8-|
|----------------------------------------------------------------------|
"Climb it to the sky..." Play 4x

1,2~~~~~~~~~~~~~~~~~~~~~~~~~~~~~~~~~~~~~
----------------------------------------|
10h12-12-12-12-12-12-12-12-12-12-12-12-*|
---------------------------------------*|
----------------------------------------|

3,4~~~~~~~~~~~~~~~~~~~~~~~~~~~~~~~~~~~~~
----------------------------------------|
----------------------------------------|
10h12-12-12-12-12-12-12-12-12-12-12-12--|
----------------------------------------|

|-------------------------------------|
|*--------8-----10-----8-----11-10-8-*|
|*-11-8-8---8-8----8-8---8-8---------*|
|-------------------------------------|
Play 4x

|-------------------------------------------------------------|
|*---------4---------------4-------------4-------4-4-4-6-4-3-*|
|*-4h6-6-6---6-6-6-4h6-6-6---6-6-4h6-6-6---6-6-6-------------*|
|-------------------------------------------------------------|
Play 4x

|-------------------------------------------------------------|
|*-----------------------------------------------------6-----*|
|*-6h8-8-8-6h8-8-8-6h8-8-8-9-8-6-6h8-8-8-6h8-8-8-9-9-9---9-8-*|
|-------------------------------------------------------------|
Play 4x

|-------------------------------------|
|*--------8-----10-----8-----11-10-8-*|
|*-11-8-8---8-8----8-8---8-8---------*|
|-------------------------------------|
Play 4x

|--3h4-4-4-3----|-------------------|--3h4-4-4-3----|
|*-----------4-*|*-4-4-4-4-4-4-4-4-*|*-----------4-*|
|*-------------*|*-----------------*|*-------------*|
|---------------|-------------------|---------------|
Lyrics enter Play 2x Play 3x
Play 3x

|-------------------|-------------------|-------------------|--3h4-4-4-3----|
|*-4-4-4-4-4-4-4-4-*|*-2-2-2-2-2-2-2-2-*|*-4-4-4-4-4-4-4-4-*|*-----------4-*|
|*-----------------*|*-----------------*|*-----------------*|*-------------*|
|-------------------|-------------------|-------------------|---------------|
Play 2x, slide to Play 4x, slide to Play 4x Play 3x
next bar next bar

|-------------------|--3h4-4-4-3----|-------------------|-------------------|
|*-4-4-4-4-4-4-4-4-*|*-----------4-*|*-4-4-4-4-4-4-4-4-*|*-2-2-2-2-2-2-2-2-*|
|*-----------------*|*-------------*|*-----------------*|*-----------------*|
|-------------------|---------------|-------------------|-------------------|
Play 2x Play 3x Play 2x, slide to Play 4x, slide to
next bar next bar

|-------------------|
|*-4-4-4-4-4-4-4-4-*|
|*-----------------*|
|-------------------|
Play 4x

|----------------------------------------------------------------------|
|*-5-5-5-7-7-7-5-5-5-7-7-7-9-9-5---------------------------------------|
|*-------------------------------8-8-8-10-10-10-8-8-8-10-10-10-12-12-8-|
|----------------------------------------------------------------------|
Play 4x

1,2~~~~~~~~~~~~~~~~~~~~~~~~~~~~~~~~~~~~~
----------------------------------------|
10h12-12-12-12-12-12-12-12-12-12-12-12-*|
---------------------------------------*|
----------------------------------------|

3,4~~~~~~~~~~~~~~~~~~~~~~~~~~~~~~~~~~~~~
----------------------------------------|--3h4-4-4-3----|---|
----------------------------------------|*-----------4-*|-4-|
10h12-12-12-12-12-12-12-12-12-12-12-12--|*-------------*|---|
----------------------------------------|---------------|---|
Play 3x
Suggest correction
Give kudos to tab author, rate the tab!
1 2 3 4 5
comments
print report bad tab
guest
You may want to rate the tab now too:
select rating
Wanna post a correction for this tab? Suggest correction