Oops, an error
Loading. Please wait.

The Alchemist Bass Tab

version 1
version 1

Whole song

Interactive

337 views 1 this week
no commentswrite comment
1 2 3 4 5
please rate
add to favorites
launch autoscroll
font size
0
reset
guitar tuner
Tab Pro tools
  • play this tab
  • loop segment
  • change instrument
  • show fretboard
  • metronome
×
Best way to learn
"The Alchemist"
Autoscroll
slow
fast
+/-
esc
set tempo
stop
Difficulty
intermediate
Iron Maiden- The Alchemist
Tuning- Standard EADG
My first tab so might not be very accurate...


PT.1-Intro

G|---------------------------------------------------------------------|
D|---------------------------------------------------------------------|(2x)
A|--5-5-55-5-55-55—5-5-55-5-55-55---7-5h7p5----------------------------|
E|------------------------------------------8—7------------------------| 


PT.2-Verse

G|---------------------------------------------------------------------|
D|------------------4-5-7-7-5-4----------------2-3-5-5-3-2-------------|(2x)
A|--5-55-55—5-55-55-------------3-33-33-3-33-33------------------------|
E|---------------------------------------------------------------------|


PT.3-Interlude

G|-----------------------------|
D|-----------------------------|(2x)
A|------------------1-3—-1-----|
E|--3-33-33-3-33-33--------1---|

G|-----------------------------|
D|-----------------------------|(2x)
A|------------------3-5—-3-----|
E|--5-55-55-5-55-55--------3---|



PT.4-Pre-Chorus

G|-------------------------------------------------------------------|
D|-------------------------------------------------------------------| (2x)
A|--5-55-55---------3-33-33----------1-11-11—-3-33-33--5-55-55—55—555|
E|----------6-66-66---------3-33-33----------------------------------|


Pre-Chorus pt.2 (play 2x)

G|----------------------------------------------|The 10’s aren’t 1-0-1-0
D|----------------------------------------------|played fast, they’re two 
A|5h7-77-77—10-1010-1010------------------------|fast notes on the 10th fret. 
E|-----------------------8h10-1010-1010—10-9-7--|

G|-------------------------------------------------|
D|-------------------------------------------------|
A|-5h7-77-77-10-1010-1010--------------------------|
E|------------------------10-1010-1010-10-1010-1010|


PT.5-Chorus 

G|----------------------------------|
D|----------------------------------|
A|-3-33-33-7-77-77-5-55-55-5-55-55--|
E|----------------------------------|

G|----------------------------------|
D|----------------------------------|
A|-3-33-33-7-77-77-5-55-55-555-555--|
E|----------------------------------|

PT.6-Solo

G|--------------------------------|
D|--------------------------------|
A|-0-00-00-3-33-33----------5-3-2-|
E|------------------3-33-33-------| 2x

G|---------------------------------|
D|-0-00-00-3-33-33-----------------|
A|-----------------3-33-33-3-33-33-|
E|---------------------------------|


G|--------------------------------------------|
D|--------------------------------------------|
A|-7-77-77-10-1010-1010----------------12-10-9|
E|---------------------10-1010-10-1010--------|
 
PT.7- End
A|-5h7-77-77-5h7-77-77-5h7-77-77-77777/|

ORDER
Pt1
Pt2
Pt3
Pt4
Pt5
Pt1
Pt2
Pt3
Pt4
Pt5
Pt6
Pt5 (2x)
Pt7

comments
We did not receive enough feedback on this tab! Please rate:
print report bad tab
1 2 3 4 5
I want to post or [tab]
guest
You may want to rate the tab now too:
select rating
Please do not post tabs as comments. Select "correction" instead!