Oops, an error
Loading. Please wait.

The Alchemist Bass Tab

version 2
version 2

Whole song

Interactive

244 views 1 this week
no commentswrite comment
1 2 3 4 5
accurate
x 1
add to favorites
launch autoscroll
font size
0
reset
guitar tuner
Tab Pro tools
  • play this tab
  • loop segment
  • change instrument
  • show fretboard
  • metronome
Autoscroll
slow
fast
+/-
esc
set tempo
stop
Contributor
G|-----------------------------------------------------------------|
D|-----------------------------------------------------------------|
A|-0-00-00-0-00-00—0-00-00-0-00-00-0-00-00-0-00-00---7-7p5-3-2-7---|
E|-----------------------------------------------------------------| 

G|-----------------------------------------------------------------|
D|-----------------------------------------------------------------|
A|-0-00-00-0-00-00—0-00-00-0-00-00-0-00-00-0-00-00---7-7p5-3-2-3---|
E|-----------------------------------------------------------------| 

0:14
G|-------------------------------------------------------------------|
D|o-----------------4-45-57--75-4-------------------2-23-35--53-2---o|
A|o-5-55-55—5-55-55---------------5-3-33-33-3-33-33---------------3-o|
E|-------------------------------------------------------------------|

G|-----------------------------|-----------------------------|
D|o---------------------------o|o---------------------------o|
A|o-----------------1-3—-1----o|o-----------------3-5--3----o|
E|--3-33-33-3-33-33--------1---|--5-55-55-5-55-55--------3---|

0:46
G|------------------------------------------------------------------|
D|------------------------------------------------------------------|
A|-5-55-55---------3-33-33---------1-11-11—3-33-33-5-55-55—5555555--|
E|---------6-66-66---------3-33-33----------------------------------|

G|------------------------------------------------------------------|
D|------------------------------------------------------------------|
A|-5-55-55---------3-33-33---------1-11-11—--------5-55-55—5555555--|
E|---------6-66-66---------3-33-33---------1-11-11------------------|

1:02
G|----------------------------------------------|
D|----------------------------------------------| 
A|-7-77-77—10-1010-1010-------------------------|
E|----------------------10-1010-1010—101010-8-7-|

G|----------------------------------------------------|
D|----------------------------------------------------|
A|-7-77-77-10101010101010-----------------------------|
E|------------------------10-1010101010-10-1010101010-|

1:08
G|------------------------------------------|
D|------------------------------------------| 
A|-7-77-77—10-1010-1010---------------------|
E|----------------------10-1010-1010—8--7-5-|

G|----------------------------------------------------|
D|----------------------------------------------------|
A|-7-77-77-10101010101010-----------------------------|
E|------------------------10-1010101010-10-1010101010-|

1:16
G|-------------------------------------------------------------------------|
D|o-----------------------------------------------------------------------o|
A|o-3-33-33--7-77-77--5-55-55--5-55-52--3-33-33--7-77-77--5-55-55-555-555-o|
E|-------------------------------------------------------------------------|

1:32
G|-----------------------------------------------------------------|
D|-----------------------------------------------------------------|
A|-0-00-00-0-00-00—0-00-00-0-00-00-0-00-00-0-00-00---7-7p5-3-2-7---|
E|-----------------------------------------------------------------| 

G|-----------------------------------------------------------------|
D|-----------------------------------------------------------------|
A|-0-00-00-0-00-00—0-00-00-0-00-00-0-00-00-0-00-00---7-7p5-3-2-3---|
E|-----------------------------------------------------------------| 

1:47
G|-------------------------------------------------------------------|
D|o-----------------4-45-57--75-4-------------------2-23-35--53-2---o|
A|o-5-55-55—5-55-55---------------5-3-33-33-3-33-33---------------3-o|
E|-------------------------------------------------------------------|

G|-----------------------------|-----------------------------|
D|o---------------------------o|o---------------------------o|
A|o-----------------1-3—-1----o|o-----------------3-5--3----o|
E|--3-33-33-3-33-33--------1---|--5-55-55-5-55-55--------3---|

2:18
G|------------------------------------------------------------------|
D|------------------------------------------------------------------|
A|-5-55-55---------3-33-33---------1-11-11—3-33-33-5-55-55—5555555--|
E|---------6-66-66---------3-33-33----------------------------------|

G|------------------------------------------------------------------|
D|------------------------------------------------------------------|
A|-5-55-55---------3-33-33---------1-11-11—--------5-55-55—5555555--|
E|---------6-66-66---------3-33-33---------1-11-11------------------|

2:34
G|-------------------------------------------|
D|o------------------------------------------| 
A|o-7-77-77—10-1010-1010---------------------|
E|-----------------------10-1010-1010—8--7-5-|

G|-----------------------------------------------------|
D|----------------------------------------------------o|
A|-7-77-77-10101010101010-----------------------------o|
E|------------------------10-1010101010-10-1010101010--|

2:48
G|-----------------------------------------------------------------------|
D|-----------------------------------------------------------------------|
A|-3-33-33--7-77-77--5-55-55--5-55-5---3-33-33--7-77-77--5-55-55-555-555-|
E|-----------------------------------------------------------------------|

G|-----------------------------------------------------------------------|
D|-----------------------------------------------------------------------|
A|-3-33-33--7-77-77--5-55-55--5-55-52--3-33-33--7-77-77--5-55-55-555-555-|
E|-----------------------------------------------------------------------|

3:04
G|--------------------------------------------------------------------|
D|o------------------------------------------------------------------o|
A|o-0-00-00-3-33-33---------5--3--2--0-00-00-3-33-33-----------------o|
E|------------------3-33-33--------------------------333333333333333--| 

3:19
G|--------------------------------------------------------------------|
D|o-0-00-00-3-33-33---------5--3--2--0-00-00-3-33-33-----------------o|
A|o-----------------3-33-33--------------------------333333333333333-o|
E|--------------------------------------------------------------------|

3:35
G|--------------------------------------------------|
D|o-------------------------------------------------|
A|o-7-77-77-10-1010-1010-----------------12--10--9--|
E|-----------------------10-1010-10-1010------------|
 
G|------------------------------------------------------|
D|-----------------------------------------------------o|
A|-7-77-77-10-1010-1010--------------------------------o|
E|----------------------101010101010101010101010101010--|

3:51 x3
G|-------------------------------------------------------------------------|
D|o-----------------------------------------------------------------------o|
A|o-3-33-33--7-77-77--5-55-55--5-55-5---3-33-33--7-77-77--5-55-55-555-555-o|
E|-------------------------------------------------------------------------|

4:14
G|------------------------------------------------------|
D|------------------------------------------------------|
A|-3-33-33--7-77-77--5-55-55--5-55-5---3-33-33----------|
E|----------------------------------------------0-00-00-|

G|-------------------------------------|
D|-------------------------------------|
A|-5h7-77-77-5h7-77-77-5h7-77-77-77777-|
E|-------------------------------------|
Tabbed by Dave Vucko
comments
We did not receive enough feedback on this tab! Please rate:
print report bad tab
1 2 3 4 5
I want to post or [tab]
guest
You may want to rate the tab now too:
select rating
Please do not post tabs as comments. Select "correction" instead!