Oops, an error
Loading. Please wait.

The Apparition Tab

version 1
version 1

Whole song

Interactive

1,548 views 1 this week
no commentswrite comment
1 2 3 4 5
2 more votes to show rating
add to favorites
×
Save as Personal and add changes to this tab that will be seen only by you. Learn more ›
×
You can save this tab as Personal to edit and correct it or add notes. All changes will be seen only by you. Learn more »
save as personal
new!
launch autoscroll
font size
0
reset
how to read this tab
guitar tuner
Autoscroll
slow
fast
+/-
esc
set tempo
stop
Author
Difficulty
intermediate
e|-||------------------------------|-----------------------------------------|
B|-||*-----------------------------|-----------------------------------------|
G|4||------------------------------|-----------------------------------------|
D|4||---9-9-9--------------10-10---|--7-7-7------------9-9-9-----------------|
A|-||*--7-7-7---------------7--7---|--5-5-5------------7-7-7-----------------|
E|-||0-----------------------------|-----------------------------------------|
      Now I'm here can you see me,    'cos I'm out    on my own.___

e|-------------------------------------|---------------------------|----------|
B|-------------------------------------|---------------------------|----------|
G|-------------------------------------|---------------------------|----------|
D|-9-9-9------------10-10-10-----------|-------7-7-7------9-9-9----|----------|
A|-7-7-7-------------7--7--7-----------|-------5-5-5------7-7-7----|----------|
E|-------------------------------------|---------------------------|----------|
  When the room goes cold,  tell me you can feel me,'cos I'm here.

e|--------------------------|------------------------------|------------------|
B|--------------------------|------------------------------|------------------|
G|--------------------------|------------------------------|------------------|
D|9-9-9---------10-10-------|---7-7-7---------9-9-9--------|-9-9-9-----10-10--|
A|7-7-7----------7--7-------|---5-5-5---------7-7-7--------|-7-7-7------7--7--|
E|--------------------------|------------------------0-0-0-|------------------|
 Here I am,  can you see me  passing through on my way__  to place I'd been

e|----------|---------------------|-----------------------|---------------------|
B|----------|---------------------|-----------------------|---------------------|
G|----------|---------------------|-9-9-9---------7-7-7---|---------------------|
D|-10-------|--7--9---------------|-7-7-7---------5-5-5---|----7-7-7------------|
A|--7-------|--5--7---------------|-7-7-7---------5-5-5---|----5-5-5------------|
E|----------|---------------------|-----------------------|---------------------|
 to only in my dreams   before.  In a world of delusion,    never turn your

e|----------------------|--------------------------------------|----------------|
B|----------------------|--------------------------------------|----------------|
G|----------------------|-9-9-9-------------7-7-7--------------|----------------|
D|--7-7-7---------------|-7-7-7-------------5-5-5--------------|-5--7------7----|
A|--5-5-5----7-7-7------|-7-7-7-------------5-5-5--------------|-3--5------5----|
E|-----------5-5-5------|--------------------------------------|----------------|
 back on a friend.___  You can count your real true friends on one hand,___

e|-----------------|----------------------------------|-------------------------|
B|-----------------|----------------------------------|-------------------------|
G|-----------------|--9-9-9------------------7-7-7----|-------------------------|
D|-----------------|--7-7-7------------------5-5-5----|---7-7-7--------7-7-7----|
A|-----------------|--7-7-7------------------5-5-5----|---5-5-5--------5-5-5----|
E|-----------------|----------------------------------|-------------------------|
 through life.___  There are those that deceive you, there are those that'll

e|---------------|---------------------------------|---------------------------|
B|---------------|---------------------------------|---------------------------|
G|---------------|----9-9-9-----------7-7-7--------|---------------------------|
D|---------------|----7-7-7-----------5-5-5--------|--5---7--------7-----------|
A|---7-7-7-------|----7-7-7-----------5-5-5--------|--3---5--------5-----------|
E|---5-5-5-------|---------------------------------|---------------------------|
 let you down.  Is there someone there that would die for you, thought not.

e|------------------------------|----------------------|----------------------|
B|------------------------------|----------------------|----------------------|
G|------------------------------|----------------------|----------------------|
D|-9-9-9---------------10-10-10-|-7-7-7-------9-9-9----|------9-9-9-----------|
A|-7-7-7----------------7--7--7-|-5-5-5-------7-7-7----|------7-7-7-----------|
E|------------------------------|----------------------|----------------------|
 Live your life with a passion, everything do, do well.  You only get out of

e|---------------|---------------------|-------------------------|--------------|
B|---------------|---------------------|-------------------------|--------------|
G|---------------|---------------------|-------------------------|--------------|
D|------10-10-10-|--7-7-7------9-9-9---|-9-9-9----------10-10----|---7-7-7------|
A|-------7--7--7-|--5-5-5------7-7-7---|-7-7-7-----------7--7----|---5-5-5------|
E|---------------|---------------------|-------------------------|--------------|
 life what you put in,  so they say.  In a world of confusion,  people never

e|--------------------|---------------------------------|-----------------------|
B|--------------------|---------------------------------|-----------------------|
G|--------------------|---------------------------------|-----------------------|
D|---9-9-9------------|-----9-9-9---------10-10-10------|--7-----9--------------|
A|---7-7-7------------|-----7-7-7----------7--7--7------|--5-----7--------------|
E|-----------0-0-0----|---------------------------------|-----------------------|
 say what they mean   If you want a straight answer go look for one right

e|----|----------------------------|-------------------------------------------|
B|----|----------------------------|-------------------------------------------|
G|----|---9-9-9------------7-7-7---|-------------------------------------------|
D|----|---7-7-7------------5-5-5---|--7-7-7---------7-7-7----------------------|
A|----|---7-7-7------------5-5-5---|--5-5-5---------5-5-5-----7-7-7------------|
E|----|----------------------------|--------------------------5-5-5------------|
 now. In a room full of strangers, do you stand with your back to the wall?

e|-----------------------------------------|---------------------------------|
B|-----------------------------------------|---------------------------------|
G|-9-9-9-------------7-7-7-----------------|---------------------------------|
D|-7-7-7-------------5-5-5-----------------|---5----7------7-----------------|
A|-7-7-7-------------5-5-5-----------------|---3----5------5-----------------|
E|-----------------------------------------|---------------------------------|
   Do you  sometimes feel like you're on the outside, looking in?

e|---------------------------|----------------------------|-------------------|
B|---------------------------|----------------------------|-------------------|
G|---9-9-9------------7-7-7--|----------------------------|-9-9-9--------7-7--|
D|---7-7-7------------5-5-5--|---7-7-7-------7-7-7--------|-7-7-7--------5-5--|
A|---7-7-7------------5-5-5--|---5-5-5-------5-5-5---7-7-7|-7-7-7--------5-5--|
E|---------------------------|-----------------------5-5-5|-------------------|
  You can make your own luck, you create your destiny.      I believe you

e|---------------------||------------------------------||-----------------------|
B|--------------------*||------------------------------||-----------------------|
G|-7-------------------||------------------------------||-----------------------|
D|-5-------------------||--5----7-------7--------------||-----------------------|
A|-5------------------*||--3----5-------5--------------||-----------------------|
E|---------------------||------------------------------||-----------------------|
 have the power if you want to,           it's true.

e||---------------------------|----------------------------------||-----------|
B||---------------------------|----------------------------------||-----------|
G||---------------------------|----------------------------------||-----------|
D||----------------------5----|------------------5-5-5-7-5\4-----||-----------|
A||7----7-5h7-7----7-5h7-5-7--|----7-5h7-7-7-5h7-5-5-5-7-5\4--7--||-----------|
E||7----7-5h7-7----7-5h7---7--|----7-5h7-7-7-5h7--------------7--||-----------|
    rest       rest            rest                                repeat

e|-------------||---------------------------|-------------------------------||--|
B|-------------||---------------------------|-------------------------------||--|
G|-------------||---------------------------|-------------------------------||--|
D|-------------||----------------------7----|--------------7-7-7-9-7\6------||--|
A|-------------||9----9-7h9-9----9-7h9-7-9--|9-7h9-9-9-7h9-7-7-7-9-7\6-9----||--|
E|-------------||9----9-7h9-9----9-7h9---9--|9-7h9-9-9-7h9-------------9----||--|
 previous Rhy   rest       rest

e|--------------------||--------------------------------------------------------|
B|--------------------||--------------------------------------------------------|
G|--------------------||-13b-------13b-----11-9h11p9----9-9-11p9----9-9-9h11p9--|
D|--------------------||-----------------------------11----------11-------------|
A|--------------------||--------------------------------------------------------|
E|--------------------||--------------------------------------------------------|
 repeat previous Rhy   (solo)

e|------------------------------------------16b-----16b----14-12-\11--12--------|
B|----------------------------12-b-r-p9-12--------------------------------------|
G|----9----9h11p9----9----9-----------------------------------------------------|
D|-11---11--------11---11-------------------------------------------------------|
A|------------------------------------------------------------------------------|
E|------------------------------------------------------------------------------|


e|-12p11h12----------11-12p11----11----12h14p12----11-12p11----11---------------|
B|----------14-12-14----------14----11----------14----------14----14------------|
G|-------------------------------------------------------------------12brp9-----|
D|------------------------------------------------------------------------------|
A|------------------------------------------------------------------------------|
E|------------------------------------------------------------------------------|


e|---------------------||--------------------------7--9--7-|-7--6--7--9--7--6---|
B|---------------------||----5----5-----5-7/9-7-9----------|--------------------|
G|-12p9----------------||\6----6-----6---------------------|--------------------|
D|------12-11p9-11---\2||----------------------------------|--------------------|
A|---------------------||----------------------------------|--------------------|
E|---------------------||----------------------------------|--------------------|
           (end solo)||Gtr.2

e|---------------------||----------------------------------|--------------------|
B|---------------------||--------------------------5--7--7-|-5--4--5--7--5--4---|
G|---------------------||----2----2-----2-4/6-4-6----------|--------------------|
D|---------------------||/4----4-----4---------------------|--------------------|
A|---------------------||----------------------------------|--------------------|
E|---------------------||----------------------------------|--------------------|
                       Gtr.1

e|-----------------------------|------------------------------------------------|
B|-7--7--7--5--7--9--7--5------|------------------------------------------------|
G|-------------------------6\4-|------------------------------------------------|
D|-----------------------------|------------------------------------------------|
A|-----------------------------|------------------------------------------------|
E|-----------------------------|------------------------------------------------|
 |Gtr.2                      | Repeat previous rhythms                      |

e|-----------------------------|------------------------------------------------|
B|-----------------------------|------------------------------------------------|
G|-4--4--4-----4--6--4--2------|------------------------------------------------|
D|----------7--------------4\2-|------------------------------------------------|
A|-----------------------------|------------------------------------------------|
E|-----------------------------|------------------------------------------------|
  Gtr.1

e|-----14h16p14----14--------14h17p14----14-------14----------14h16p14---------|
B|---x----------17----19b-------------17----19b------17p14h17----------17\14---|
G|-x---------------------------------------------------------------------------|
D|-----------------------------------------------------------------------------|
A|-----------------------------------------------------------------------------|
E|-----------------------------------------------------------------------------|
 |(solo2) Gtr.2                                                             |

e|----------------------------------------------------------------------------|
B|----------------------------------------------------------------------------|
G|----------------------------------------------------------------------------|
D|-----2---4-----------------2---4----------------2---4---------------2---4---|
A|-----2---4-----------------2---4----------------2---4---------------2---4---|
E|----------------------------------------------------------------------------|
 Gtr.1            rest                 rest                rest

e|----|------------------------------------------------------------------------|
B|-14-|-19b-\-12----------14h17p14------------------14--17p14------------14----|
G|----|----------------------------\16p14-------18b------------18br---------16-|
D|----|--------------------------------------16--------------------------------|
A|----|------------------------------------------------------------------------|
E|----|------------------------------------------------------------------------|
    |Gtr.2     \bar dive       bar dive                                     |

e|----|-------------------------------------------------------------------------|
B|----|-------------------------------------------------------------------------|
G|----|-------------------------------------------------------------------------|
D|----|-4------------------4-----------------------4----------------------2-----|
A|----|-4-----2---2--------4-------------2---2-----4-------------2---2----2-----|
E|----|-------------------------------------------------------------------0-----|
 Gtr.1

e|--------------14-17p14--------17-19--21br---------|-16h17p16-16-17p16---------|
B|-17p14-------------------/19----------------------|---------------------------|
G|--------------------------------------------------|---------------------------|
D|--------------------------------------------------|---------------------------|
A|--------------------------------------------------|---------------------------|
E|--------------------------------------------------|---------------------------|
   |Gtr.2                                                                   |

e|--------------------------------------------------|---------------------------|
B|--------------------------------------------------|---------------------------|
G|-----------------------------------------2---4----|--4----------------4-------|
D|---2---4------2---4-------2---4----------2---4----|--4----------------4-------|
A|---2---4------2---4-------2---4-------------------|---------2---2---------2---|
E|--------------------------------------------------|---------------------------|
  Gtr.1

e|----------------------------------------|-------------------------------------|
B|-19p17p14-17p15h17p15p14h15-------------|-13--------13---------13--------13---|
G|------------------------------18b-\-----|-12b-------12b--------12b------------|
D|----------------------------------------|-------------------------------------|
A|----------------------------------------|-------------------------------------|
E|----------------------------------------|-------------------------------------|
 |Gtr.2                                   (wah-wah pedal)                   |

e|----------------------------------------|-------------------------------------|
B|----------------------------------------|-------------------------------------|
G|----------------------------------------|---------------------------------10--|
D|-----------4----------------------2-----|-10----12---10----12---10----12--10--|
A|-2---------4----------2---2-------2-----|-10----12---10----12---10----12------|
E|----------------------------------0-----|-------------------------------------|
  Gtr.1                                           rest rest  rest rest

e|-------------|------------------------------------------|--17b----------17b---|
B|-------------|------------------------------------------|---------------------|
G|-12brp10-----|-10---------------------------------------|---------------------|
D|----------12-|------------12-10-------------------------|---------------------|
A|-------------|------------------12-11-10-8-10----8------|---------------------|
E|-------------|--------------------------------10--------|---------------------|
 |Gtr.2                                                                     |

e|-------------|------------------------------------------|---------------------|
B|-------------|------------------------------------------|---------------------|
G|-12----------|12---------12----------12-----------------|---------------------|
D|-12----------|12---------12----------12----------10-----|--10---12------10----|
A|-------------|---10--10------10--10-----10--10---10-----|--10---12------10----|
E|-------------|------------------------------------8-----|---------------------|
 Gtr.1

e|-17brp13----13-|----------------------------------------17b----r\-------2----|
B|---------15----|15brp13-----15p13------15p13------13-------------------------|
G|---------------|--------14---------14---------14-----------------------------|
D|---------------|-------------------------------------------------------------|
A|---------------|-------------------------------------------------------------|
E|---------------|-------------------------------------------------------------|
 |Gtr.2                                                                     |

e|---------------|-------------------------------------------------------------|
B|---------------|-------------------------------------------------------------|
G|----------10-12|12-------------12------------12------------------------------|
D|-12-10-12-10-12|12-------------12------------12-----------10-----------------|
A|-12-10-12------|------10--10--------10--10-------10--10---10-----------------|
E|---------------|-------------------------------------------8-----------------|
 Gt1                                                              (end solo)

e||--------------------------------------------------|------------------------|
B||--------------------------------------------------|------------------------|
G||--------------------------------------------------|------------------------|
D||-------------------------------------5------------|------------------------|
A||5--------5--------5--------5------------5--7------|5--------5--------5-----|
E||---6--7-----6--7-----6--7-----6--7----------------|---6--7-----6--7-----6--|
 Gtr.1 and 2                                    rest

e|------------------|------------------------------------------------|3---------|
B|------------------|------------------------------------------------|3---------|
G|------------------|------------------------------------------------|0---------|
D|------------------|------------------------------------5-----------|----------|
A|----5-------------|5--------5--------5--------5-----------5--7-----|3---------|
E|-7-----6--7--3--0-|---6--7-----6--7-----6--7-----6--7--------------|----------|
                                                               rest

e|-3--------||------------------||---------------||--------------------|--------|
B|-3--------||------------------||*-------------*||--------------------|--------|
G|-0--------||------------------||---------------||--------------------|--------|
D|-0--------||------------------||---------------||-----5-------7------|--------|
A|----------||------------------||*-------------*||-----3-------5------|--------|
E|-3--------||------------------||---------------||--------------------|--------|
            Repeat bars marked  w/second verse (then) way     one     day.___
Suggest correction
Give kudos to tab author, rate the tab!
1 2 3 4 5
comments
print report bad tab
guest
You may want to rate the tab now too:
select rating
Wanna post a correction for this tab? Suggest correction