Oops, an error
Loading. Please wait.

The Clansman Tab

version 3
version 3

Whole song

1,627 views 1 this week
no commentswrite comment
1 2 3 4 5
please rate
add to favorites
launch autoscroll
font size
0
reset
how to read this tab
guitar tuner
Autoscroll
slow
fast
+/-
esc
set tempo
stop
Help us to improve Ultimate-Guitar.com Take our survey!
×
This is the Clansman by the amazing Iron Maiden its from their 11th album Virtual XI (XI 
for 11).


Intro Riff A
------------------------------------------|
-------------------------------5-8-5------|
--7-7-7-5-7-7-5------7-7-7-5-7-------7-5--| x2
----------------7-5-----------------------|
------------------------------------------|
------------------------------------------|

Intro Riff B
----------7-8-7--------------7-8-7--------------7-8-7------10-8-8-----------7-8-7--------------7-8-7----------|
--10---10-------10-8-10---10-------10-8-10---10-------10-8--------8-10---10-------10-8-10---10-------10-8-10--|
-----9------------------9------------------9---------------------------9------------------9-------------------|
--------------------------------------------------------------------------------------------------------------|
--------------------------------------------------------------------------------------------------------------|
--------------------------------------------------------------------------------------------------------------|

Verse Riff
--10-10-8----10-10-8----10-10-8------8-------|
----------10---------10---------10-8---8-10--|
---------------------------------------------|
---------------------------------------------|Repeat 3x during the verse
---------------------------------------------|
---------------------------------------------|

Chorus
---------------------------------------------------------|
---------------------------------------------------------|
--9-9---5-------9-9---5-------9-9---5-------------5---7--|
--9-9---5---5---9-9---5---5---9-9---5---5---7-7---5---7--|
--7-7---3---5---7-7---3---5---7-7---3---5---7-7---3---5--|
------------3-------------3-------------3---5-5----------|

Verse
--------------------------------------------------------------------------------------|
--------------------------------------------------------------------------------------|
--9--9--9-9-9--9--9-9-9--9--9-9-9--9--9-9-9--9--9-9-9--9--9-9-9--9--9-9-9--9---7------|
--9--9--9-9-9--9--9-9-9--9--9-9-9--9--9-9-9--9--9-9-9--9--9-9-9--9--9-9-9--9---7---7--|
--7--7--7-7-7--7--7-7-7--7--7-7-7--7--7-7-7--7--7-7-7--7--7-7-7--7--7-7-7--7---5---7--|
-----------------------------------------------------------------------------------5--|

---------------------------------------------------------------|
---------------------------------------------------------------|
----------------------------------------5-------7--------------|
--repeat the above bit and finish with--5---5---7---7---5---7--|
----------------------------------------3---5---5---7---5---7--|
--------------------------------------------3-------5---3---5--|

Chorus
---------------------------------------------------------|
---------------------------------------------------------|
--9-9---5-------9-9---5-------9-9---5-------------5---7--|
--9-9---5---5---9-9---5---5---9-9---5---5---7-7---5---7--|
--7-7---3---5---7-7---3---5---7-7---3---5---7-7---3---5--|
------------3-------------3-------------3---5-5----------|

Riff A
-----7-8-7------------7-8-7------------7-8-7---------8-----|
--10-------10-8-10-10-------10-8-10-10-------10-8-10---10--|
-----------------------------------------------------------|
-----------------------------------------------------------| x2
-----------------------------------------------------------|
-----------------------------------------------------------|

I couldn't work out the next riff i got as far as figuring out that it begins on the 9th 
of the g-string

Janicks solo
--17p12----12---------------------------------------------------------------------------------------------|
--------15----15p12-15p12----12-----------------12-15b17r15-15--13-12-13p12-12----------------------------|
--------------------------14----14p12-----12-14--------------------------------14-14p12/11h12p11----------|
---------------------------------------14--------------------------------------------------------14--12~--|
----------------------------------------------------------------------------------------------------------|
----------------------------------------------------------------------------------------------------------|

--15b17-15p14p12----12-14--15-17-15-17b19-17-15--14-15-14------------------------------|
-----------------15---------------------------------------15-17-15-17~--(17~)----------|
--------------------------------------------------------------------------------14b16--|
---------------------------------------------------------------------------------------|
---------------------------------------------------------------------------------------|
---------------------------------------------------------------------------------------|

--12----12-15b17-15-14-12-----12---------------------------------------------------------------------------|
-----12--------------------15----15-13p12----12-----------------12-----------------------------------------|
------------------------------------------14----14p12----12h14-----14p12h----14b16-14b16-14b16--14b16r14~--|
------------------------------------------------------14------------------14-------------------------------|
-----------------------------------------------------------------------------------------------------------|
-----------------------------------------------------------------------------------------------------------|

--------------------------------------------------------------------------------------------------------------------|
-------------------------------------------------------------------------------------------------------------15/17~-|
--14b16r14p12/11-12p11-12p11-----11-----------------------------------------------------12----14b16-12----12--------|
------------------------------14----14p12----12-------------------12-------12--14-14-14----14----------14-----------|
------------------------------------------14----14-13-12----12h14----12h14------------------------------------------|
---------------------------------------------------------15---------------------------------------------------------|

--------
-(17~)--
--------|
--------|
--------|
--------|

Daves Solo
------------12-14-15--15p14p12-15p14p12---------------------------------------------------------------------------|
--15b17~--------------------------------15p13p12-15-13-12-----12--------------------------------------------------|
----------------------------------------------------------14-----14p12----12-14b16~----12h1412----12--------------|
-----------------------------------------------------------------------14----------------------14----14p12----12--|
-----------------------------------------------------------------------------------------------------------14-----|
------------------------------------------------------------------------------------------------------------------|

-------------------------------------------------------12\14-15-17b19r17-|
-----------------------------------12-----12-15-12--15-------------------|
---------------12-----12-14-12--14----14---------------------------------|
--14-14-12--14----14-----------------------------------------------------|
-------------------------------------------------------------------------|
-------------------------------------------------------------------------|

--15-15-15-14-14-14-15-15-15-14-14-14--17-15-14----------|
------------------------------------------------15b17~---|
---------------------------------------------------------|
---------------------------------------------------------|
---------------------------------------------------------|
---------------------------------------------------------|

Verse Riff
--10-10-8----10-10-8----10-10-8------8-------|
----------10---------10---------10-8---8-10--|
---------------------------------------------|
---------------------------------------------|
---------------------------------------------|
---------------------------------------------|

Verse
--------------------------------------------------------------------------------------|
--------------------------------------------------------------------------------------|
--9--9--9-9-9--9--9-9-9--9--9-9-9--9--9-9-9--9--9-9-9--9--9-9-9--9--9-9-9--9---7------|
--9--9--9-9-9--9--9-9-9--9--9-9-9--9--9-9-9--9--9-9-9--9--9-9-9--9--9-9-9--9---7---7--|
--7--7--7-7-7--7--7-7-7--7--7-7-7--7--7-7-7--7--7-7-7--7--7-7-7--7--7-7-7--7---5---7--|
-----------------------------------------------------------------------------------5--|

--------------------------------------------------------------------------------------|
--------------------------------------------------------------------------------------|
--9--9--9-9-9--9--9-9-9--9--9-9-9--9--9-9-9--9--9-9-9--9--9-9-9--9--9-9-9--9---7------|
--9--9--9-9-9--9--9-9-9--9--9-9-9--9--9-9-9--9--9-9-9--9--9-9-9--9--9-9-9--9---7---7--|
--7--7--7-7-7--7--7-7-7--7--7-7-7--7--7-7-7--7--7-7-7--7--7-7-7--7--7-7-7--7---5---7--|
-----------------------------------------------------------------------------------5--|

---------------------------------------------------|
---------------------------------------------------|
----------------------------------------5-------7--|
--repeat the above bit and finish with--5---5---7--|
----------------------------------------3---5---5--|
--------------------------------------------3------|

Riff B
---------------------------------------------------------------|
-----------------------------12--------------------------------|
--9-11-12-11-9--9-11-12-11-9-----9-11-12-11-9--9-11-12-11-9-7--| x4
---------------------------------------------------------------|
---------------------------------------------------------------|
---------------------------------------------------------------|

Riff C
--12-0-0-7-0-0-10-0-0-5-0-0-8-0-0-3-0-0-2-0-0-3-0-0--|
-----------------------------------------------------|
-----------------------------------------------------|
-----------------------------------------------------| x4
-----------------------------------------------------|
-----------------------------------------------------|

Verse
--------------------------------------------------------------------------------------|
--------------------------------------------------------------------------------------|
--9--9--9-9-9--9--9-9-9--9--9-9-9--9--9-9-9--9--9-9-9--9--9-9-9--9--9-9-9--9---7------|
--9--9--9-9-9--9--9-9-9--9--9-9-9--9--9-9-9--9--9-9-9--9--9-9-9--9--9-9-9--9---7---7--|
--7--7--7-7-7--7--7-7-7--7--7-7-7--7--7-7-7--7--7-7-7--7--7-7-7--7--7-7-7--7---5---7--|
-----------------------------------------------------------------------------------5--|

----------------------------------------------------------------------------------------------|
----------------------------------------------------------------------------------------------|
----------------------------------------5-------7--------------7-------5-------7--------------|
--repeat the above bit and finish with--5---5---7---7---5---7--7---7---5---5---7---7---5---7--|
----------------------------------------3---5---5---7---5---7--5---7---3---5---5---7---5---7--|
--------------------------------------------3-------5---3---5------5-------3-------5---3---5--|

Riff C
--12-0-0-7-0-0-10-0-0-5-0-0-8-0-0-3-0-0-2-0-0-3-0-0--|
-----------------------------------------------------|
-----------------------------------------------------|
-----------------------------------------------------| x4
-----------------------------------------------------|
-----------------------------------------------------|

Verse Riff
--10-10-8----10-10-8----10-10-8------8-------|
----------10---------10---------10-8---8-10--|
---------------------------------------------|
---------------------------------------------|
---------------------------------------------|
---------------------------------------------|
Suggest correction
What's this?
You can suggest a correction to this tab. Community and Mods will review your correction and vote to approve or reject it.
comments
We did not receive enough feedback on this tab! Please rate:
print report bad tab
1 2 3 4 5
guest
You may want to rate the tab now too:
select rating
Please do not post tabs as comments. Select "correction" instead!