Oops, an error
Loading. Please wait.

The Evil That Men Do Bass Tab

version 1
version 1

Whole song

16,300 views 36 this week
5 commentsread comments
1 2 3 4 5
excellent!
x 12
add to favorites
launch autoscroll
font size
0
reset
guitar tuner
Autoscroll
slow
fast
+/-
esc
set tempo
stop
Help us to improve Ultimate-Guitar.com Take our survey!
×
Author
OK I THINK THAT THIS IS QUITE CORRECT. PUT YOUR COMMENTS AND RATE
PLEASE.


                                      THE EVIL THAT MEN DO


  > = ACCENT
  h = HAMMER ON
  ~ = LET RING
  . = STACCATO
 INTRO
 G|-9~--7~--5~--7~--5~--5-7-9~--7~--5~--|
 D|.9~--7~--5~--7~--5~--5-7-9~--7~--5~-.|
 A|.7~--5~--3~--5~--3~--3-5-7~--5~--3~-.|
 E|-------------------------------------|


   VERSE                                                 X4
 G|---------------------------------------------------------|
 D|.-------------------------------------------------------.|
 A|.7-777-777-777-777-777-777-777-3-333-333-333-2-3-2-3-2-3.|
 E|---------------------------------------------------------|


   PRE-CHORUS                                                X2
 G|-------------------------------------------------------------|
 D|.-----------------------------------------------------------.|
 A|.7-777-777-777-777-3-333-333-333---------------5-555-555-555.|
 E|---------------------------------3-333-333-333---------------|


   PRE-CHORUS 2                 X1
 G|-------------------------------|
 D|.--------------10-9-----------.|
 A|.3-333-333-333------12-10-9-10.|
 E|-------------------------------|

   PRE-CHORUS 3                                         X2
 G|-----------------------------------------------------------|
 D|.-------------------------->-------------------------------|
 A|.3-333-333-333-333-333-333-5-7-777-777-777-777-777-777-777-|
 E|-----------------------------------------------------------|

 G|---------------------------------------------------|
 D|--------------------------------------------------.|
 A|-5-555-555-555-555-555-3-333-333-333-5-555-555-555.|
 E|---------------------------------------------------|

   CHORUS                                                 X2
 G|-------------------------------------------------------------|
 D|.------------------------------------------------------------|
 A|.7-777-777-777-777-777-777-7-7-3-333-333-33-3-5-555-555-55-5-|
 E|-------------------------------------------------------------|

 G|--------------------------------------------------------------|
 D|-------------------------------------------------------------.|
 A|-7-777-777-777-777-777-777-7-7-3-333-333-33-3-------------5h7.|
 E|----------------------------------------------5-555-555-55----|

   VERSE                                                 X2
 G|---------------------------------------------------------|
 D|.-------------------------------------------------------.|
 A|.7-777-777-777-777-777-777-777-3-333-333-333-2-3-2-3-2-3.|
 E|---------------------------------------------------------|

   PRE-CHORUS                                                X2
 G|-------------------------------------------------------------|
 D|.-----------------------------------------------------------.|
 A|.7-777-777-777-777-3-333-333-333---------------5-555-555-555.|
 E|---------------------------------3-333-333-333---------------|


   PRE-CHORUS 2                 X1
 G|-------------------------------|
 D|.--------------10-9-----------.|
 A|.3-333-333-333------12-10-9-10.|
 E|-------------------------------|

   PRE-CHORUS 3                                         X1
 G|-----------------------------------------------------------|
 D|.-------------------------->-------------------------------|
 A|.3-333-333-333-333-333-333-5-7-777-777-777-777-777-777-777-|
 E|-----------------------------------------------------------|

 G|---------------------------------------------------|
 D|--------------------------------------------------.|
 A|-5-555-555-555-555-555-3-333-333-333-5-555-555-555.|
 E|---------------------------------------------------|


   CHORUS                                                 X1
 G|-------------------------------------------------------------|
 D|.------------------------------------------------------------|
 A|.7-777-777-777-777-777-777-7-7-3-333-333-33-3-5-555-555-55-5-|
 E|-------------------------------------------------------------|

 G|--------------------------------------------------------------|
 D|-------------------------------------------------------------.|
 A|-7-777-777-777-777-777-777-7-7-3-333-333-33-3-------------5h7.|
 E|----------------------------------------------5-555-555-55----|


  CHORUS CONTINUE
 G|-------------------------------------------------------------|
 D|.------------------------------------------------------------|
 A|.7-777-777-777-777-777-777-7-7-3-333-333-33-3-5-555-555-55-5-|
 E|-------------------------------------------------------------|

 G|---------------------------------------------------------------|
 D|--------------------------------------------------------------.|
 A|-7-777-777-777-777-777-777-7-7-3-333-333-33-3-----------------.|
 E|----------------------------------------------5-555-555-5-5-5--|


   INTERLUDE
 G|-----------9999-7777--------------------------------------------------|
 D|..---.--.------------9999-7-------------------------------------------|
 A|.7---7--7-------------------7-777-777-7-7-7-777-7-7-7-3-333-333-3-3-3-|
 E|----------------------------------------------------------------------|

 G|-----------------------------------------------------------|
 D|-----------------------------------------------------------|
 A|-5-555-555-5-5-5-7-777-777-7-7-7-777-7-7-7-3-333-333-3-3-3-|
 E|-----------------------------------------------------------|

 G|---------------|
 D|--------------.|
 A|--------------.|
 E|-5-555-555-555-|


   SOLO                                                  X1
 G|----------------------------------------------------------|
 D|.---------------------------------------------------------|
 A|.55-7h9-999-999-999-999-999-5-555-555-555-7-777-777-7-7-7-|
 E|----------------------------------------------------------|

 G|---------------------------------------------------|
 D|--------------------------------------------------.|
 A|-9-999-999-999-999-999-5-555-555-555-2-222-222-222.|
 E|---------------------------------------------------|

  SOLO CONTINUE
 G|----------------------------------------------------------|
 D|.---------------------------------------------------------|
 A|.55-7h9-999-999-999-999-999-5-555-555-555-7-777-777-7-7-7-|
 E|----------------------------------------------------------|

 G|-------------------------------------------------------|
 D|------------------------------------------------------.|
 A|-9-999-999-999-999-999-5-555-555-555-2-222-222-222-2-2.|
 E|-------------------------------------------------------|


   PRE-CHORUS 3                                         X1
 G|-----------------------------------------------------------|
 D|.-------------------------->-------------------------------|
 A|.3-333-333-333-333-333-333-5-7-777-777-777-777-777-777-777-|
 E|-----------------------------------------------------------|

 G|---------------------------------------------------|
 D|--------------------------------------------------.|
 A|-5-555-555-555-555-555-3-333-333-333-5-555-555-555.|
 E|---------------------------------------------------|


  CHORUS                                                 X1
 G|-------------------------------------------------------------|
 D|.------------------------------------------------------------|
 A|.7-777-777-777-777-777-777-7-7-3-333-333-33-3-5-555-555-55-5-|
 E|-------------------------------------------------------------|

 G|--------------------------------------------------------------|
 D|-------------------------------------------------------------.|
 A|-7-777-777-777-777-777-777-7-7-3-333-333-33-3-------------5h7.|
 E|----------------------------------------------5-555-555-55----|


 CHORUS CONTINUE
 G|-------------------------------------------------------------|
 D|.------------------------------------------------------------|
 A|.7-777-777-777-777-777-777-7-7-3-333-333-33-3-5-555-555-55-5-|
 E|-------------------------------------------------------------|

 G|---------------------------------------------------------------|
 D|--------------------------------------------------------------.|
 A|-7-777-777-777-777-777-777-7-7-3-333-333-33-3-----------------.|
 E|----------------------------------------------5-555-555-5-5-5--|

   OUTRO
 G|---------------------------------------------|
 D|.--------------------------------------------|
 A|.7-777-777-7-777-777-7-3-333-333-5-555-5-5-5-|
 E|---------------------------------------------|

 G|----------------------------------------------------|
 D|---------------------------------------------.--.-..|
 A|-7-777-777-7-777-777-7-3-333-333-------------7--7-7.|
 E|---------------------------------5-555-5-5-5--------|


 THANK YOU
Suggest correction
comments
print report bad tab
5 comments total. Showing first comments.
0 reply
BroDD 368 wrote on January 20 2007, 07:23 am

This tab is MUCH MUCH better than version 1 of this song, great tabbing

0 reply
Langerz1991 41 wrote on August 22 2007, 03:08 pm

Great tab of a great song! nice job =)

0 reply
IRONxPANTERA 50 wrote on September 1 2008, 03:25 pm

I do not see a problem with it!
5/5

guest
You may want to rate the tab now too:
select rating
Please do not post tabs as comments. Select "correction" instead!