Oops, an error
Loading. Please wait.

The Evil That Men Do Tab

version 2
version 2

Whole song

7,683 views 6 this week
3 commentsread comments
1 2 3 4 5
1 last vote to show rating
add to favorites
launch autoscroll
font size
0
reset
how to read this tab
guitar tuner
Autoscroll
slow
fast
+/-
esc
set tempo
stop
Help us to improve Ultimate-Guitar.com Take our survey!
×
Iron Maiden
The Evil That Men Do
7th Son Of A 7th Son

Intro
---------------------------------|
---------------------------------|
--------12----14-16-14-12-14-16--|
--12-14----14--------------------|
---------------------------------|
---------------------------------|

------------------------------------|
------------------------------------|
--------12----14-16-14-12-14-16-----|
--12-14----14-------------------14--|
------------------------------------|
------------------------------------|

------------------------------------|
------------------------------------|
--------12----14-16-14-12-14-16-14--|
--12-14----14-----------------------|
------------------------------------|
------------------------------------|

----------------|
--15-17-15--12--|
----------------|
----------------|
----------------|
----------------|

------------------------------------|
------------------------------------|
--------12----14-16-14-12-14-16-----|
--12-14----14-------------------14--|
------------------------------------|
------------------------------------|

---------------------------------|
---------------------------------|
--------12----14-16-14-12-14-16--|
--12-14----14--------------------|
---------------------------------|
---------------------------------|

------------------------------------|
------------------------------------|
--------12----14-16-14-12-14-16-----|
--12-14----14-------------------14--|
------------------------------------|
------------------------------------|

Verse
-----------------------------------|
-----------------------------------|
--9-9-9-9-9-9-9-9-5-5-5-5-5-5-5-5--|
--9-9-9-9-9-9-9-9-5-5-5-5-5-5-5-5--|
--7-7-7-7-7-7-7-7-3-3-3-3-3-3-3-3--|
-----------------------------------|

Pre Chorus
----------------|--------------------|
----------------|--------------------|
--9---5-------7-|-9---5-------7---5--|
--9---5---5---7-|-9---5---5---7---5--|
--7---3---5---5-|-7---3---5---5---3--|
----------3-----|---------3----------|

-----------------|
-----------------|
--4-2-0---0-2----|
--------4--------|
--------------3--|
-----------------|

-------------------------|
-------------------------|
-------------------------|
------5---7-9-7-5-7-9----|
--5-7---7-------------7--|
-------------------------|

-------------------|
-------------------|
--------------7-9--|
-------7-9-10------|
--7-10-------------|
-------------------|

Chorus
--------------|
--------------|
--9-----5--7--|
--9-----5--7--|
--7-----3--5--|
--------------|

Verse
-----------------------------------|
-----------------------------------|
--9-9-9-9-9-9-9-9-5-5-5-5-5-5-5-5--|
--9-9-9-9-9-9-9-9-5-5-5-5-5-5-5-5--|
--7-7-7-7-7-7-7-7-3-3-3-3-3-3-3-3--|
-----------------------------------|

Pre Chorus
----------------|--------------------|
----------------|--------------------|
--9---5-------7-|-9---5-------7---5--|
--9---5---5---7-|-9---5---5---7---5--|
--7---3---5---5-|-7---3---5---5---3--|
----------3-----|---------3----------|

-----------------|
-----------------|
--4-2-0---0-2----|
--------4--------|
--------------3--|
-----------------|

-------------------------|
-------------------------|
-------------------------|
------5---7-9-7-5-7-9----|
--5-7---7-------------7--|
-------------------------|

-------------------|
-------------------|
--------------7-9--|
-------7-9-10------|
--7-10-------------|
-------------------|

Chorus
--------------|
--------------|
--9-----5--7--|
--9-----5--7--|
--7-----3--5--|
--------------|

Solo
-------------------|
-------------------|
-------------------|
----4-5-4-5-4-0----|
--7-------------7--|
-------------------|

-------------------|
-------------------|
-------------------|
--0-2-4-2-4-2------|
--------------4-5--|
-------------------|

--14--14-16-17-16-14--|
----------------------|
----------------------|
----------------------|
----------------------|
----------------------|

--14--------------------|
-----17----17-----------|
--------16----16--------|
-----------------16-----|
--------------------14--|
------------------------|

------------------------------------|
------------------------------------|
------------------------------------|
--------------------12-11-------14--|
--12-11----14-12-11-------14-12-----|
--------14--------------------------|

--------------------12-----|
---------------------------|
--------11-10----13----13--|
--12-----------------------|
-----14--------------------|
---------------------------|

--------------12----------------12----------------12--------|
-----10----10----10----10----10----10----10----10----10-----|
--10----10----------10----10----------10----10----------10--|
------------------------------------------------------------|
------------------------------------------------------------|
------------------------------------------------------------|

------------------------------|
--17----17-16-----------------|
-----16-------16----14--------|
-----------------16----14-----|
--------------------------16--|
------------------------------|

--19-17-16-17-16-17-16-14-16-14-16-14----14-----------------|
--------------------------------------17----17-14-----------|
--------------------------------------------------16-14-12--|
------------------------------------------------------------|
------------------------------------------------------------|
------------------------------------------------------------|

Pre Chorus
-------------------------|
-------------------------|
-------------------------|
------5---7-9-7-5-7-9----|
--5-7---7-------------7--|
-------------------------|

-------------------|
-------------------|
--------------7-9--|
-------7-9-10------|
--7-10-------------|
-------------------|

Chorus
--------------|
--------------|
--9-----5--7--|
--9-----5--7--|
--7-----3--5--|
--------------|

Outro
-------------------|
-------------------|
--9-9--9-9---5--7--|
--9-9--9-9---5--7--|
--7-7--7-7---3--5--|
-------------------|

-------------------|
-------------------|
-------------------|
----4-5-4-5-4-0----|
--7-------------7--|
-------------------|
Suggest correction
Give kudos to tab author, rate the tab!
1 2 3 4 5
comments
print report bad tab
3 comments total.
0 reply
JoeBoy779 10 Jan 07, 2005 12:00 AM

good jobby

0 reply
METSOAD 1,622 Feb 16, 2006 05:24 AM

You are missing all the fills and half the chorus

0 reply
METSOAD 1,622 Feb 25, 2006 04:05 PM

THERE IS NO PRE-VERSE RIFF

guest
You may want to rate the tab now too:
select rating
Wanna post a correction for this tab? Suggest correction