Oops, an error
Loading. Please wait.

The Final Frontier Tab

version 1
version 1

Whole song

Interactive

36,007 views 39 this week
6 commentsread comments
1 2 3 4 5
excellent!
x 12
add to favorites
launch autoscroll
font size
0
reset
how to read this tab
guitar tuner
Tab Pro tools
  • play this tab
  • loop segment
  • change instrument
  • show fretboard
  • metronome
Autoscroll
slow
fast
+/-
esc
set tempo
stop
Contributor
Difficulty
-------------------------------------------------------------------------------
                             Final Frontier - Iron Maiden
-------------------------------------------------------------------------------
Tabbed by: maidenbridge666

Tuning: Standard

This is a tab for the second half of the new Iron Maiden song Satelite 15...The Final Frontier.
(Only the second part because thats the only part I've heard)

Extra Details:
This is my first tab so it will probally have some mistakes and any comments would be welcome.
I might not have written the right amount of times you hit a chord but just listen to 
song to get the strumming right.
Plus I dont have the solo's yet but i'm hoping to get around to doing them soon.

Main Riff//Pre Chorus//Chorus

e|----------------------------------------------------|
B|----------------------------------------------------|
G|---7/9-9-99---12-77---9-9-22------------------------|
D|---7/9-9-99---12-77---9-9-22------------------------|
A|---5/7-7-77---10-55---7-7-00--2h3-2-----------------|
E|------------------------------------5-3-2h3-2-------|


Verse Part 1

e|----------------------------------------------------|
B|----------------------------------------------------|
G|-7/9-9---5/7-7---5/7-7------------------------------|
D|-7/9-9---5/7-7---5/7-7------------------------------|
A|-5/7-7---3/5-5---3/5-5---2h3-2----------------------|
E|-------------------------------5-3-2h3-2------------|


Verse Part 2

e|----------------------------------------------------|
B|----------------------------------------------------|
G|-7/9-9-99---5/7-7-77--------------------------------|
D|-7/9-9-99---5/7-7-77---5/7-7-77---------------------|
A|-5/7-7-77---3/5-5-55---5/7-7-77---2h3-2-------------|
E|-----------------------3/5-5-55---------5-3-2h3-2---|


End with an E5 power chord. Adrian plays this lick over Dave and Janick playing the chord.

e|----------------------------------------------------|
B|-15b17-15-12----------------------------------------|
G|-------------14-14b16r14-12-------------------------|
D|-------------------------------14~~~----------------|
A|----------------------------------------------------|
E|----------------------------------------------------|


Song Order: Main Riff//Pre Chorus//Chorus x2
            Verse Part 1 x2
            Verse Part 2 x4
            Main Riff//Pre Chorus//Chorus x2
            Verse Part 1 x2
            Verse Part 2 x2
            Main Riff//Pre Chorus//Chorus x2
     Solo's:Main Riff//Pre Chorus//Chorus x6
            Verse Part 1 x2
            Verse Part 2 x2
            Main Riff//Pre Chorus//Chorus x6 (Last 4 times with a solo)

************************************

| /   slide up
| \   slide down
| h   hammer-on
| p   pull-off
| ~   vibrato
| +   harmonic
| x   Mute note
| b   Bend
| pb  Pre-bend
| br  Bend release
| pbr Pre-bend release
| brb Bend release bend

************************************
comments
print report bad tab
6 comments total. Showing first comments.
0 reply
metalgui wrote on August 22 2010, 02:55 pm

Man this tab is pretty good, especially if it's your first one. 5*

0 reply
Leather Sleeves wrote on August 27 2010, 12:28 pm

Nice, I never usued to bother trying to figure stuff on my own but I couldn't help it with the new Maiden, this is exactly what I came up with.

0 reply
drug.me.2.hell wrote on October 25 2010, 11:28 am

awesome tab but the intro goes like

e|----------------------------------------------------|
B|----------------------------------------------------|
G|---7/9-9-99---12-77--9------------------------------|
D|---7/9-9-99---12-77--9--7-7-7-7---------------------|
A|---5/7-7-77---10-55--7--7-7-7-7---------------------|
E|------------------------5-5-5-5----8-7-5-3-0--------|

I want to post or [tab]
guest
You may want to rate the tab now too:
select rating
Please do not post tabs as comments. Select "correction" instead!