Oops, an error
Loading. Please wait.

The Final Frontier Tab

version 2
version 2

Whole song

Interactive

2,347 views 1 this week
no commentswrite comment
1 2 3 4 5
please rate
add to favorites
launch autoscroll
font size
0
reset
how to read this tab
guitar tuner
Tab Pro tools
  • play this tab
  • loop segment
  • change instrument
  • show fretboard
  • metronome
×
Best way to learn
"The Final Frontier"
Autoscroll
slow
fast
+/-
esc
set tempo
stop
Contributor
Difficulty
intermediate
Artist: Iron Maiden
Song: The Final Frontier
Album: The Final Frontier

Tabbed by: quesadilla1118
To contact me leave a comment on my profile or under the tab or e-mail me at caseymsim@gmail.com

Intro

e|----------------------------------------------------|
B|----------------------------------------------------|   x2
G|--7/9-9-99---12-77-7-9-9--9-------------------------|
D|--7/9-9-99---12-77-7-9-9--9---------7-7--5----------|
A|--5/7-7-77---10-55-5-7-7--7---7-----7-7--3----------|
E|------------------------------5--5--5-5-----7-5-3-0-|

Verse 1

e|----------------------------------------------------|
B|----------------------------------------------------|  x2
G|-7/9-9---5-7-7---5-7-7------------------------------|
D|-7/9-9---5-7-7---5-7-7------------------------------|
A|-5/7-7---3-5-5---3-5-5---5----77-7------------------|
E|-------------------------3----55-5------------------|

e|----------------------------------------------------|
B|----------------------------------------------------|
G|---7/9-9-99---12-77-7-7-5---7-7-7-7-----------------|
D|---7/9-9-99---12-77-7-7-3---7-7-7-7-----------------|
A|---5/7-7-77---10-55-5-5-3---5-5-5-5--5-7-7-7-7------|
E|-------------------------------------3-5-5-5-5------|

e|----------------------------------------------------|
B|----------------------------------------------------|
G|---7/9-9-99---12-77-7-7-5---7-7-7-7-----------------|
D|---7/9-9-99---12-77-7-7-3---7-7-7-7-----------------|
A|---5/7-7-77---10-55-5-5-3---5-5-5-5--5-7-7----------|
E|-------------------------------------3-5-5-5-3-2-0--|

Bridge 1
e|-----------------------------------------------------|
B|-----------------------------------------------------|  
G|--7/9-9-99---12-77-7-9-9--9--------------------------|  x2
D|--7/9-9-99---12-77-7-9-9--9---------7-7--5-----------|
A|--5/7-7-77---10-55-5-7-7--7---7-----7-7--3--2-0------|
E|------------------------------5--5--5-5---------3-0--|

Chorus
e|----------------------------------------------------|
B|----------------------------------------------------|   x2
G|--7/9-9-99---12-77-7-9-9--9-------------------------|
D|--7/9-9-99---12-77-7-9-9--9---------7-7--5----------|
A|--5/7-7-77---10-55-5-7-7--7---7-----7-7--3----------|
E|------------------------------5--5--5-5-----7-5-3-0-|

Verse 2
e|----------------------------------------------------|
B|----------------------------------------------------|  x2
G|-7/9-9---5-7-7---5-7-7------------------------------|
D|-7/9-9---5-7-7---5-7-7------------------------------|
A|-5/7-7---3-5-5---3-5-5---5----77-7------------------|
E|-------------------------3----55-5------------------|

e|----------------------------------------------------|
B|----------------------------------------------------|
G|---7/9-9-99---12-77-7-7-5---7-7-7-7-----------------|
D|---7/9-9-99---12-77-7-7-3---7-7-7-7-----------------|
A|---5/7-7-77---10-55-5-5-3---5-5-5-5--5-7-7-7-7------|
E|-------------------------------------3-5-5-5-5------|

e|----------------------------------------------------|
B|----------------------------------------------------|
G|---7/9-9-99---12-77-7-7-5---7-7-7-7-----------------|
D|---7/9-9-99---12-77-7-7-3---7-7-7-7-----------------|
A|---5/7-7-77---10-55-5-5-3---5-5-5-5--5-7-7----------|
E|-------------------------------------3-5-5-5-3-2-0--|

Bridge 2
e|-----------------------------------------------------|
B|-----------------------------------------------------|  
G|--7/9-9-99---12-77-7-9-9--9--------------------------|  x2
D|--7/9-9-99---12-77-7-9-9--9---------7-7--5-----------|
A|--5/7-7-77---10-55-5-7-7--7---7-----7-7--3--2-0------|
E|------------------------------5--5--5-5---------3-0--|

Chorus
e|----------------------------------------------------|
B|----------------------------------------------------|   x2
G|--7/9-9-99---12-77-7-9-9--9-------------------------|
D|--7/9-9-99---12-77-7-9-9--9---------7-7--5----------|
A|--5/7-7-77---10-55-5-7-7--7---7-----7-7--3----------|
E|------------------------------5--5--5-5-----7-5-3-0-|

This Riff is played over the solo 
(sorry, I'm still working on the solo, 
I thought I might just put up the rest of the tab first, 
then add in the solo)
e|---------------------------------------------------------|
B|---------------------------------------------------------|x4  
G|-7-9-9-99--5-7-7-77----7-7-7-7-5---7-7-7-7--------7-7-7-7|  
D|-7-9-9-99--5-7-7-77----7-7-7-7-3---7-7-7-7-7------7-7-7-7| 
A|-5-7-7-77--3-5-5-55----5-5-5-5-3---5-5-5-5-5-5--7-5-5-5-5| 
E|---------------------------------------------3--5--------|

e|---------------------------------------------------------|
B|---------------------------------------------------------|       
G|-7-9-9-99--5-7-7-77----7-7-7-7---------------------------|   x2        
D|-7-9-9-99--5-7-7-77----7-7-7-7-----2-2-2-2-5-------------|            
A|-5-7-7-77--3-5-5-55----5-5-5-5-5---0-0-0-0-3----2-0------|                 
E|-------------------------------3--------------------3-0--|

Verse 3
e|----------------------------------------------------|
B|----------------------------------------------------|  x2
G|-7/9-9---5-7-7---5-7-7------------------------------|
D|-7/9-9---5-7-7---5-7-7------------------------------|
A|-5/7-7---3-5-5---3-5-5---5----77-7------------------|
E|-------------------------3----55-5------------------|

e|----------------------------------------------------|
B|----------------------------------------------------|
G|---7/9-9-99---12-77-7-7-5---7-7-7-7-----------------|
D|---7/9-9-99---12-77-7-7-3---7-7-7-7-----------------|
A|---5/7-7-77---10-55-5-5-3---5-5-5-5--5-7-7-7-7------|
E|-------------------------------------3-5-5-5-5------|

e|----------------------------------------------------|
B|----------------------------------------------------|
G|---7/9-9-99---12-77-7-7-5---7-7-7-7-----------------|
D|---7/9-9-99---12-77-7-7-3---7-7-7-7-----------------|
A|---5/7-7-77---10-55-5-5-3---5-5-5-5--5-7-7----------|
E|-------------------------------------3-5-5-5-3-2-0--|

Bridge 3
e|-----------------------------------------------------|
B|-----------------------------------------------------|  
G|--7/9-9-99---12-77-7-9-9--9--------------------------|  x2
D|--7/9-9-99---12-77-7-9-9--9---------7-7--5-----------|
A|--5/7-7-77---10-55-5-7-7--7---7-----7-7--3--2-0------|
E|------------------------------5--5--5-5---------3-0--|

Final Chorus
e|----------------------------------------------------|
B|----------------------------------------------------|   x6
G|--7/9-9-99---12-77-7-9-9--9-------------------------|
D|--7/9-9-99---12-77-7-9-9--9---------7-7--5----------|
A|--5/7-7-77---10-55-5-7-7--7---7-----7-7--3----------|
E|------------------------------5--5--5-5-----7-5-3-0-|

Outro
e|----------------------------------------------------|
B|----------------------------------------------------|
G|-----9-Tremolo-Pick-this-for-a-while----------------|
D|-----9----------------------------------------------|
A|-----7----------------------------------------------|
E|----------------------------------------------------|

This is Played over the Tremolo-Picked chord
e|---------------------------------------------------|                       
B|---------15b17-15-12-------------------------------|    
G|---------------------14-14b16r14-12----------------|        
D|---------------------------------------14~~~-------|
A|---------------------------------------------------|
E|---------------------------------------------------|

Key
************************************

| /   slide up
| \   slide down
| h   hammer-on
| p   pull-off
| ~   vibrato
| b   Bend

************************************
That's It. Thanks!
comments
We did not receive enough feedback on this tab! Please rate:
print report bad tab
1 2 3 4 5
I want to post or [tab]
guest
You may want to rate the tab now too:
select rating
Please do not post tabs as comments. Select "correction" instead!