Oops, an error
Loading. Please wait.

The Great Unknown intro tab

version 1
version 1

Intro

Whole song

  • This tab was wanted. It was written quickly.

Interactive

223 views 1 this week
no commentswrite comment
1 2 3 4 5
3 more votes to show rating
add to favorites
×
Save as Personal and add changes to this tab that will be seen only by you. Learn more ›
×
You can save this tab as Personal to edit and correct it or add notes. All changes will be seen only by you. Learn more »
launch autoscroll
font size
0
reset
how to read this tab
guitar tuner
edit
Autoscroll
slow
fast
+/-
esc
set tempo
stop
Author
[Intro/Verse]

e|------0-----0-----0-----0---0---0-----0-----0-----0-----0---0---0-----------|
B|----0-----0-----0-----0-------------0-----0-----0-----0---------------------|
G|--------------------------------------------------------------4-------------|
D|--2-----4-----------------2---4---5-----7-----2-----4-----5-----------------|
A|--------------2-----5-------------------------------------------------------|
E|----------------------------------------------------------------------------|

e|----------------------------------------------------0-----------------------|
B|------0-----0-----0-----0---------0-----0-----0-----------------------------|
G|----------------------------------------------------------------------------|
D|--2-----4-----------------2-4-5-----7-----2-----4----5--4-------------------|
A|--------------2-----5-------------------------------------------------------|
E|----0-----0-----0-----0---------0-----0-----0-----0-------------------------|

e|------0-----0-----0-----0---0---0-----0-----0-----0-------------------------|
B|----0-----0-----0-----0-------------0-----0-----0---------------------------|
G|----------------------------------------------------4-----------------------|
D|--2-----4-----------------2---4---5-----7-----2-----------------------------|
A|--------------2-----5-------------------------------------------------------|
E|----------------------------------------------------------------------------|

e|---------------------------------------------------------------------------|
B|------0-----0-----0-----0-----------0-----0------0-----0-----0-------------|
G|---------------------------------------------------------------------------|
D|--2-----4-----------------------------7-----2--------2-----2---------------|
A|--------------2-----5-----2--4--5------------------------------------------|
E|----0-----0-----0-----0-----------0-----0------0---0-----0-----------------|

e|------0-----0-----0-----0---0---0-----0-----0-----0-----0---0---0-----------|
B|----0-----0-----0-----0-------------0-----0-----0-----0---------------------|
G|--------------------------------------------------------------4-------------|
D|--2-----4-----------------2---4---5-----7-----2-----4-----5-----------------|
A|--------------2-----5-------------------------------------------------------|
E|----------------------------------------------------------------------------|

e|----------------------------------------------------0-----------------------|
B|------0-----0-----0-----0---------0-----0-----0-----------------------------|
G|----------------------------------------------------------------------------|
D|--2-----4-----------------2-4-5-----7-----2-----4----5--4-------------------|
A|--------------2-----5-------------------------------------------------------|
E|----0-----0-----0-----0---------0-----0-----0-----0-------------------------|

e|------0-----0-----0-----0---0---0-----0-----0-----0-----0-----0------------|
B|----0-----0-----0-----0-------------0-----0-----0-----0-----0---0----------|
G|---------------------------------------------------------------------------|
D|--2-----4-----------------2---4---5-----7-----2-----2-----2----------------|
A|--------------2-----5------------------------------------------------------|
E|---------------------------------------------------------------------------|

e|---------------------------------------------------------------------------|
B|------0-----0-----0-----0------------------------------0-----0-------------|
G|---------------------------------------------------------------------------|
D|--2-----4-----------------2--4--------2-----2------------2-----------------|
A|--------------2-----5---------------2-----2----------------2---------------|
E|----0-----0-----0-----0-----------3-----5-----0----------------------------|

e|------0-----0-----0-----0---0---0-----0-----0-----0-----0-------------------|
B|----0-----0-----0-----0-------------0-----0-----0-----0-----0---------------|
G|----------------------------------------------------------------------------|
D|--2-----4-----------------2---4---5-----7-----2-----4-----5---4-------------|
A|--------------2-----5-------------------------------------------------------|
E|----------------------------------------------------------------------------|

e|----------------------------------------------------0-----------------------|
B|------0-----0-----0-----0---------0-----0-----0-----------------------------|
G|----------------------------------------------------------------------------|
D|--2-----4-----------------2-4-5-----7-----2-----4----5--4-------------------|
A|--------------2-----5-------------------------------------------------------|
E|----0-----0-----0-----0---------0-----0-----0-----0-------------------------|

e|------0-----0-----0-----0---0---0-----0-----0-----0-----0-----0------------|
B|----0-----0-----0-----0-------------0-----0-----0-----0-----0---0----------|
G|---------------------------------------------------------------------------|
D|--2-----4-----------------2---4---5-----7-----2-----2-----2----------------|
A|--------------2-----5------------------------------------------------------|
E|---------------------------------------------------------------------------|

e|---------------------------------------------------------------------------|
B|------0-----0-----0-----0------------------------------0-----0-------------|
G|---------------------------------------------------------------------------|
D|--2-----4-----------------2--4--------2-----2------------2-----2-----------|
A|--------------2-----5---------------2-----2--------------------------------|
E|----0-----0-----0-----0-----------3-----5-----0------------0-----0---------|

e|------0-------0-------0-------0-------0-----0-----0---0---0---0------------|
B|----0---0---0---0---0---0---0---0---0-----0-----0---0---0---0---0----------|
G|---------------------------------------------------------------------------|
D|--2-------2-------2-------2-------5-----7-----2----------------------------|
A|---------------------------------------------------------------------------|
E|---------------------------------------------------------------------------|

e|---------------------------------------------------------------------------|
B|------0-----------0-----------------------------0-----0-----0--------------|
G|---------------------------------------------------------------------------|
D|----2---2---2---2---2---2---2-----2-----2-----2---2-----2------------------|
A|--------------------------------2-----2-----2------------------------------|
E|--0-------0---0-------0---0---3-----5-----0---------0-----0----------------|

e|------0-----0-----0-0---0-------0-----0----0-----0-----0-----0-------------|
B|----0-----0-----0-----0---0---0-----0----0-----0-----0-----0---0-----------|
G|---------------------------------------------------------------------------|
D|--5-----7-----2-------------2-----2----------2-----2-----2-----------------|
A|---------------------------------------------------------------------------|
E|---------------------------------------------------------------------------|

e|---------------------------------------------------------------------------|
B|------------------------0-----------------------0-----0--------------------|
G|------0-----2--------------------------------------------------------------|
D|----0-----2-------2---2-----2-------2-----2---2-----2-------2--------------|
A|--------0-------2---------2---2---2-----2-----------------2---2------------|
E|--3-----------0-----0-----------3-----5-----0-----0-----0------------------|

e|------0-----0-----0-----0-----0-------0-----0-----0-----0-----0------------|
B|----0-----0-----0-----0-----0---0---0-----0-----0-----0-----0---0----------|
G|---------------------------------------------------------------------------|
D|--2-----2-----2-----2-----2-------2-----2-----2-----2-----2----------------|
A|---------------------------------------------------------------------------|
E|---------------------------------------------------------------------------|

e|--------------------------------------------------------------0-------------|
B|------------------0-----0-----0---------------------0---------0-------------|
G|----------------------------------------------------------------------------|
D|------2-----2---2-----2-----2---2-----2-----2-----2-------2-----------------|
A|----2-----2-------------------------2-----2-----2-------2-------------------|
E|--3-----5-----0-----0-----0-------3-----5-----0-------0-----0---------------|

e|------0-----0-----0-------0-----0-----0-----0-----0----0-----0---0---0------|
B|----0-----0-----0---0---0---0-------0-----0-----0----0-----0----------------|
G|----------------------------------------------------------------------------|
D|--5-----7-----2-------2-------2---2-----4-----4----------------2---4--------|
A|---------------------------------------------------2-----5------------------|
E|----------------------------------------------------------------------------|

e|---------------------------------------------------------------------------|
B|------------------------------------0-----0-----0-----0--------------------|
G|------0-----2--------------------------------------------------------------|
D|----0-----2-------2-----2-------2-----4-----------------2--4---------------|
A|--------0-------2-----2-----2---------------2-----5------------------------|
E|--3-----------0-----0-----0---0---0-----0-----0-----0----------------------|

e|---------------------------------------------------------------------------|
B|---------------------------------------------------------------------------|
G|---------------------------------------------------------------------------|
D|--------------------------------------------------------4-5-4--------------|
A|----------------------------------5-7-7-5-7-7-5-7-7-5-7-------7-5----------|
E|---------------------------------------------------------------------------|

e|------0-----0-----0-----0---0---0-----0-----0----0-----0--0---0------------|
B|----0-----0-----0-----0-------------0-----0----0-----0---------------------|
G|---------------------------------------------------------------------------|
D|--5-----7-----2-----4-----5---4---2-----4---------------2---4--------------|
A|---------------------------------------------2-----5-----------------------|
E|---------------------------------------------------------------------------|

e|------------------------0--------------------------------------------------|
B|------0-----0-----0-----------------0-----0-----0-----0--------------------|
G|---------------------------------------------------------------------------|
D|--5-----7-----2-----4-----5--4--2-----4-----------------2--4---------------|
A|--------------------------------------------2-----5------------------------|
E|----0-----0-----0-----0-----------0-----0-----0-----0----------------------|

e|---------------------------------------------------------------------------|
B|---------------------------------------------------------------------------|
G|--------------------4------------------------------------------------------|
D|----------------------7-5-7-5-4-5-----------------------4-5-4--------------|
A|--5-7-7-5-7-7-5-7-7---------------5-7-7-5-7-7-5-7-7-5-7-------7-5----------|
E|---------------------------------------------------------------------------|

e|------0-----0-----0-----0-------0-----0-----0-----0-----0---0---0----------|
B|----0-----0-----0-----0---0---0-----0-----0-----0-----0--------------------|
G|---------------------------------------------------------------------------|
D|--5-----7-----2-----2-------2-----2-----4-----------------2---4------------|
A|----------------------------------------------2-----5----------------------|
E|---------------------------------------------------------------------------|

e|---------------------------------------------------------------------------|
B|------0-----0------0-----0-----0-----0-----0-----0-------------------------|
G|---------------------------------------------------------------------------|
D|--5-----7-----2--------2---2-----4-----------------2--4--------------------|
A|---------------------------------------2-----5-----------------------------|
E|----0-----0------0---0-------0-----0-----0-----0---------------------------|

e|---------------------------------------------------------------------------|
B|---------------------------------------------------------------------------|
G|---------------------------------------------------------------------------|
D|--5------7---5--------------------------------------------4-5-4------------|
A|---------------7--------------------5-7-7-5-7-7-5-7-7-5-7-------7-5--------|
E|---------------------------------------------------------------------------|

e|------0-----0-----0-----0---0---0-----0-----0-----0-----0---0---0----------|
B|----0-----0-----0-----0-------------0-----0-----0-----0--------------------|
G|---------------------------------------------------------------------------|
D|--5-----7-----2-----4-----5---4---2-----4-----------------2---4------------|
A|----------------------------------------------2-----5----------------------|
E|---------------------------------------------------------------------------|

e|------------------------0----------------------------------------------------|
B|------0-----0-----0----------------0-----0-----0-----0-----------------------|
G|-----------------------------------------------------------------------------|
D|--5-----7-----2-----4----5--4--2-----4-----------------2--4------------------|
A|-------------------------------------------2-----5---------------------------|
E|----0-----0-----0-----0----------0-----0-----0-----0-------------------------|

e|---------------------------------------------------------------------------|
B|---------------------------------------------------------------------------|
G|---------------------4-----------------------------------------------------|
D|-----------------------7-5-7-5-4-5-----------------------4-5-4-------------|
A|--5-7-7-5-7-7-5-7-7----------------5-7-7-5-7-7-5-7-7-5-7-------7-----------|
E|---------------------------------------------------------------------------|

e|---------------------------------------------------------------------------|
B|---------------------------------------------------------------------------|
G|---------------------------------------------------------------------------|
D|---------------------------------------------------------------------------|
A|---------------------------------------------------------------------------|
E|---------------------------------------------------------------------------|




************************************

| x   Dead note
| g   Grace note
| (n) Ghost note
| h   Hammer-on
| p   Pull-off
| r   Release
| >   Accented note
| t   Tapping
| b   Bend
| br  Bend release
| pb  Pre-bend
| pbr Pre-bend release
| /   Slide up
| \   Slide down
| ~   Vibrato
| s   Slap
| P   Pop
| PM  Palm mute
| TR  Trill
| N   Tremolo

************************************

            
            
Suggest correction
Creating personal tab
Creating personal tab
You can edit any tab online and save it as your Personal.

You can edit, replace or remove any tab part or add personal notes – all changes will be seen only by you.

Personal tabs can be accessed anytime from any device, even offline.
Learn more »
Give kudos to tab author, rate the tab!
1 2 3 4 5
comments
print report bad tab
guest
You may want to rate the tab now too:
select rating
Wanna post a correction for this tab? Suggest correction