Oops, an error
Loading. Please wait.

The Great Unknown tab

version 1
version 1

Whole song

  • This tab was wanted. It was written quickly.

Interactive

580 views 6 this week
no commentswrite comment
1 2 3 4 5
2 more votes to show rating
add to favorites
×
Save as Personal and add changes to this tab that will be seen only by you. Learn more ›
×
You can save this tab as Personal to edit and correct it or add notes. All changes will be seen only by you. Learn more »
launch autoscroll
font size
0
reset
how to read this tab
guitar tuner
edit
Autoscroll
slow
fast
+/-
esc
set tempo
stop
Author
Difficulty
About this tab version
This tab was wanted. It was written quickly. Was this info helpful? Yes No
This is for the clean guitar.


[Intro]

e|-----------------------------------------------------------------------------|
B|-----0-----0-----0-----0------------------0-----0-----0-----0----------------|
G|-----------------------------------------------------------------------------|
D|-2-----4-----------------2-----4------5-----7-----2-----4-----5------4-------|
A|-------------2-----5---------------------------------------------------------|
E|---0-----0-----0-----0------------------0-----0-----0-----0------------------|

e|-----------------------------------------------------------------------------|
B|-----0-----0-----0-----0------------------0-----0--------0-----0-----0-------|
G|-----------------------------------------------------------------------------|
D|-2-----4-----------------2-----4------5-----7-----2----------2-----2---------|
A|-------------2-----5---------------------------------------------------------|
E|---0-----0-----0-----0------------------0-----0--------0---0-----0-----------|

e|-----------------------------------------------------------------------------|
B|-----0-----0-----0-----0------------------0-----0-----0-----0----------------|
G|-----------------------------------------------------------------------------|
D|-2-----4-----------------2-----4------5-----7-----2-----4-----5------4-------|
A|-------------2-----5---------------------------------------------------------|
E|---0-----0-----0-----0------------------0-----0-----0-----0------------------|

e|-----------------------------------------------------------------------------|
B|-----0-----0-----0-----0----------------------------------0-----0------------|
G|-----------------------------------------------------------------------------|
D|-2-----4-----------------2-----4----------2-----2-----------2----------------|
A|-------------2-----5--------------------2-----2---------------2--------------|
E|---0-----0-----0-----0----------------3-----5-----0--------------------------|


[Verse]

e|-----------------------------------------------------------------------------|
B|-----0-----0-----0-----0------------------0-----0-----0-----0----------------|
G|-----------------------------------------------------------------------------|
D|-2-----4-----------------2-----4------5-----7-----2-----4-----5------4-------|
A|-------------2-----5---------------------------------------------------------|
E|---0-----0-----0-----0------------------0-----0-----0-----0------------------|

e|-----------------------------------------------------------------------------|
B|-----0-----0-----0-----0----------------------------------0-----0------------|
G|-----------------------------------------------------------------------------|
D|-2-----4-----------------2-----4----------2-----2-----------2-----2----------|
A|-------------2-----5--------------------2-----2------------------------------|
E|---0-----0-----0-----0----------------3-----5-----0-----------0-----0--------|

e|------------------------------------------------------------------------------------------------|
B|-----0------------0---------------------------------0------0-----0-------0-----0----0---0-----0-|
G|------------------------------------------------------------------------------------------------|
D|---2----2---2---2---2---2---2---------2-----2-----2---2------2---------------2-----2---2----2--2|
A|------------------------------------2-----2-----2----------------------2---0--------------------|
E|-0--------0---0-------0---0-------3-----5-----0----------0-----0-----3-----------0----0---0-----|

e|--------------------------------------------------------------------------------------------------|
B|-----------------0-----0-----0----------------------------0------------------------0-----0--------|
G|-------------------------------------0-----2------------------------------------------------------|
D|-----2----2----2-----2-----2---2---0-----2----------2---------2--------2-----2---2-----2-------2--|
A|---2----2------------------------------0----------2-----2---2---2----2-----2-----------------2---2|
E|-3-----5----0------0-----0-------3-----------0--------0------------3-----5-----0-----0-----0------|

e|-------------------------------------------------------------0----------------------------------|
B|-----------------0-----0-----0---------------------0---------0----------------------------------|
G|-----------------------------------------------------------------------0-----2------------------|
D|-----2-----2---2-----2-----2---2-----2-----2-----2-------2-----------0-----2-------2-----2------|
A|---2-----2-------------------------2-----2-----2-------2-----------------0-------2-----2--------|
E|-3-----5-----0-----0-----0-------3-----5-----0-------0-----0-------3-----------0-----0-----0---0|

e|-----------------------------------------------------------------------------|
B|-----0-----0-----0-----0------------------0-----0-----0-----0----------------|
G|-----------------------------------------------------------------------------|
D|-2-----4-----------------2-----4------5-----7-----2-----4-----5------4-------|
A|-------------2-----5---------------------------------------------------------|
E|---0-----0-----0-----0------------------0-----0-----0-----0------------------|

e|------------------------------------------------------------------------|
B|-----0-----0-----0-----0------------------0-----0--------0-----0-----0--|
G|------------------------------------------------------------------------|
D|-2-----4-----------------2-----4------5-----7-----2----------2-----2----|
A|-------------2-----5----------------------------------------------------|
E|---0-----0-----0-----0------------------0-----0--------0---0-----0------|

e|-----------------------------------------------------------------------------|
B|-----0-----0-----0-----0------------------0-----0-----0-----0----------------|
G|-----------------------------------------------------------------------------|
D|-2-----4-----------------2-----4------5-----7-----2-----4-----5------4-------|
A|-------------2-----5---------------------------------------------------------|
E|---0-----0-----0-----0------------------0-----0-----0-----0------------------|

e|-----------------------------------------------------------------------------|
B|-----0-----0-----0-----0-----------------------------------------------------|
G|-----------------------------------------------------------------------------|
D|-2-----4-----------------2-----4---------------------------------------------|
A|-------------2-----5------------------5-----7----2----2----------------------|
E|---0-----0-----0-----0----------------3-----5----0----0-0-0-0-0-0------------|


e||--------------------------------------------------------------------------------------------------|
B||--------------------------------------------------------------------------------------------------|
G||*-------------------------------------------------------------------------------------------------|
D||*-9-----11-----7-----9-----9---9---9-------------------------------9------------------------------|
A||--7-----9------5-----7-----7---7-7-7-----7-7-7-7---------7---7---7-7-----7---7-7-7---7------------|
E||----0-0----0-0---0-0---0-0---0-------0-0---------0-0-0-0---0---0-----0-0---0-------0---0-0-0-0-0-0|

1 , 3                             2                           4
e|-----------------------------||--------------------------||----------------------------|
B|-----------------------------||--------------------------||----------------------------|
G|---------------7---7--------*||--------------9-9-9-9-9-9*||----------------------------|
D|-----------------9---9-8-7--*||--------------9-9-9-9-9-9*||----------------------------|
A|-5---7---2-------------------||-5---7---7----------------||-5---7---2-----2-2-2-2------|
E|-3---5---0-------------------||-3---5---0----------------||-3---5---0-----0-0-0-0------|

e|-----------|-----------|-----------|-------------|-----------|-----------|-----------|-------------|
B|-----------|-----------|-----------|-------------|-----------|-----------|-----------|-------------|
G|-5-----5---|-2-----2---|-4-----4---|-5---5---7---|-5-----5---|-2-----2---|-4-----4---|-5---5---7---|
D|-5-----5---|-2-----2---|-4-----4---|-5---5---7---|-5-----5---|-2-----2---|-4-----4---|-5---5---7---|
A|-3-----3---|-0-----0---|-2-----2---|-3---3---5---|-3-----3---|-0-----0---|-2-----2---|-3---3---5---|
E|-----------|-----------|-----------|-------------|-----------|-----------|-----------|-------------|


e|----|---------5---|-3---3---3---|---------5---|---------0---|---------5---|--------3-------|
B|----|-3---3---5---|-3---3---3---|-3---3---5---|---------0---|-3---3---5---|-----------3----|
G|-9--|-4---4---7---|-5---5---5---|-4---4---7---|-2---2-------|-4---4---7---|-5---5--------5-|
D|-9--|-5---5---7---|-5---5---5---|-5---5---7---|-2---2-------|-5---5---7---|-5--------------|
A|-7--|-5---5---5---|-3---3---3---|-5---5---5---|-0---0-------|-5---5---5---|-3--------------|
E|-0--|-3---3-------|-------------|-3---3-------|-------------|-3---3-------|----------------|

e|---------5---|
B|-3---3---5---|
G|-4---4---7---|
D|-5---5---7---|
A|-5---5---5---|
E|-3---3-------|

e||--------------------------------------------------------------------------------------------------|
B||--------------------------------------------------------------------------------------------------|
G||*-------------------------------------------------------------------------------------------------|
D||*-9-----11-----7-----9-----9---9---9-------------------------------9------------------------------|
A||--7-----9------5-----7-----7---7-7-7-----7-7-7-7---------7---7---7-7-----7---7-7-7---7------------|
E||----0-0----0-0---0-0---0-0---0-------0-0---------0-0-0-0---0---0-----0-0---0-------0---0-0-0-0-0-0|

  1                              2                           
e|-----------------------------||--------------------------------|
B|-----------------------------||--------------------------------|
G|---------------7---7--------*||--------------------------------|
D|-----------------9---9-8-7--*||--------------------------------|
A|-5---7---2-------------------||-5---7---7----------------------|
E|-3---5---0-------------------||-3---5---0---0-0-0-0-0-0--------|


e|-3---3---|-0---0---|---------|-----------|-3---3---|-0---0---|---------|-----------|
B|-3---3---|-0---0---|---------|-----------|-3---3---|-0---0---|---------|-----------|
G|-5---5---|-2---2---|-4---4---|-------7---|-5---5---|-2---2---|-4---4---|-------7---|
D|-5---5---|-2---2---|-4---4---|-5--5--7---|-5---5---|-2---2---|-4---4---|-5--5--7---|
A|-3---3---|-0---0---|-2---2---|-5--5--5---|-3---3---|-0---0---|-2---2---|-5--5--5---|
E|---------|---------|---------|-3--3------|---------|---------|---------|-3--3------|


e|-----|---------5---|-3--3--3--|-------5--|-------0---|-------5--|-------3--------|-------5--|
B|-----|-3---3---5---|-3--3--3--|-3--3--5--|-------0---|-3--3--5--|----------3-----|-3--3--5--|
G|-9---|-4---4---7---|-5--5--5--|-4--4--7--|-----------|-4--4--7--|-5--5--------5--|-4--4--7--|
D|-9---|-5---5---7---|-5--5--5--|-5--5--7--|-2--2------|-5--5--7--|-5--------------|-5--5--7--|
A|-7---|-5---5---5---|-3--3--3--|-5--5--5--|-2--2------|-5--5--5--|-3--------------|-5--5--5--|
E|-0---|-3---3-------|----------|-3--3-----|-0--0------|-3--3-----|----------------|-3--3-----|


[Interlude 4:11]                                       1

e||------------------------|-----------------------|------------------------|-----------------||
B||------------------------|-12--15--12--15--12----|-12--15--12--15--12-----|-12---15---12----||
G||*-12--14--12--14--12-14-|--------------------14-|--------------------14--|----------------*||
D||*-----------------------|-----------------------|------------------------|----------------*||
A||------------------------|-----------------------|------------------------|-----------------||
E||------------------------|-----------------------|------------------------|-----------------||

   2
e|-----------------------|-------------------|--------------------------------|
B|---------12--15--12----|-12---15---12------|--------------------------------|
G|-12--14-------------14-|-------------------|--------------------------------|
D|-----------------------|-------------------|-----------------------7--8--3--|
A|-----------------------|----------------3--|-----------------------5--6--1--|
E|-----------------------|----------------1--|--3-3-3-3-3-3-3-3-3-3-----------|


e|--------------------------------|-------------------------------|
B|--------------------------------|-------------------------------|
G|--------------------------------|-------------------------------|
D|-----------------------7--8--3--|-----------------------7--8--3-|
A|-----------------------5--6--1--|-----------------------5--6--1-|
E|--1-1-1-1-1-1-1-1-1-1-----------|--3-3-3-3-3-3-3-3-3-3----------|


e|--------------------------------|-------------------------------|
B|--------------------------------|-------------------------------|
G|--------------------------------|-------------------------------|
D|-----------------------7--8--3--|-----------------------7--8--3-|
A|-----------------------5--6--1--|-----------------------5--6--1-|
E|--1-1-1-1-1-1-1-1-1-1-----------|--3-3-3-3-3-3-3-3-3-3----------|


e|--------------------------------|-------------------------------|
B|--------------------------------|-------------------------------|
G|--------------------------------|-------------------------------|
D|-----------------------7--8--3--|-----------------------7--8--3-|
A|-----------------------5--6--1--|-----------------------5--6--1-|
E|--1-1-1-1-1-1-1-1-1-1-----------|--3-3-3-3-3-3-3-3-3-3----------|


e|------------------------------|-------------------------------|
B|------------------------------|-------------------------------|
G|------------------------------|-------------------------------|
D|-----------------------7--8---|-2---------------------4--5----|
A|--1-1-1-1-1-1-1-1-1-1--5--6---|-0-0-0-0-0-0-0-0-0-0-0-2--3--5-|
E|------------------------------|-----------------------------3-|

e||-------------------------------|--------------------------------||
B||-------------------------------|--------------------------------||
G||*------------------------------|-------------------------------*||
D||*---------------------4--5--2--|-----------------------4--5----*||
A||----------------------2--3--0--|--0-0-0-0-0-0-0-0-0-0--2--3--5--||
E||--3-3-3-3-3-3-3-3-3-3----------|-----------------------------3--||

e|-------------------------------|-------|
B|-------------------------------|-------|
G|-------------------------------|-------|
D|----------------------4--5--2--|-------|
A|----------------------2--3--0--|-------|
E|--3-3-3-3-3-3-3-3-3-3----------|-------|

e|-----------------------------------------------------------------------------|
B|-----0-----0-----0-----0------------------0-----0-----0-----0----------------|
G|-----------------------------------------------------------------------------|
D|-2-----4-----------------2-----4------5-----7-----2-----4-----5------4-------|
A|-------------2-----5---------------------------------------------------------|
E|---0-----0-----0-----0------------------0-----0-----0-----0------------------|

e|-------------------------------------------------------------------|
B|-----0-----0-----0-----0----------------------0-------0----0-----0-|
G|-------------------------------------------------------------------|
D|-2-----4-----------------2-----4--------2---2-----2----2-----2-----|
A|-------------2-----5------------------2---0---------2----2-----2---|
E|---0-----0-----0-----0--------------3-----------0------------------|

e|------------------------------------------------------------------------|
B|-----0-----0-----0-----0------------------0-----0-----0-----0-----------|
G|------------------------------------------------------------------------|
D|-2-----4-----------------2-----4------5-----7-----------2-----4------5--|
A|-------------2-----5-------------------------------2--------------------|
E|---0-----0-----0-----0------------------0-----0------0-----0------------|

e|-----------------------------------------------------------------------------|
B|-----0-----0-----0-----0------------------0-----0-----0-----0----------------|
G|-----------------------------------------------------------------------------|
D|-2-----4-----------------2-----4------5-----7-----2-----4-----5------4-------|
A|-------------2-----5---------------------------------------------------------|
E|---0-----0-----0-----0------------------0-----0-----0-----0------------------|

e|--------------------------------------------------------------------------|
B|-----0-----0-----0-----0-----------------------0-------------------0------|
G|--------------------------------------------------------------------------|
D|-2-----4-----------------2-----4---------2---2---------2-----2------------|
A|-------------2-----5-------------------2---0---------2---2-----2----------|
E|---0-----0-----0-----0---------------3-----------0---------0-----0--------|

e|-----------------------------------------------------------------------------|
B|-----0-----0-----0-----0------------------0-----0-----0-----0----------------|
G|-----------------------------------------------------------------------------|
D|-2-----4-----------------2-----4------5-----7-----2-----4-----5------4-------|
A|-------------2-----5---------------------------------------------------------|
E|---0-----0-----0-----0------------------0-----0-----0-----0------------------|

e|-----------------------------------------------------------------------------|
B|-----0-----0-----0-----0-----------------------------0-----0-----0-----------|
G|-----------------------------------------------------------------------------|
D|-2-----4-----------------2-----4---------2-----2---2-----2-----2---2---------|
A|-------------2-----5-------------------2-----2-------------------------------|
E|---0-----0-----0-----0---------------3-----5-----0-----0-----0--------------|

e|-----------------------------------------------------------------------------|
B|-----0-----0-----0-----0------------------0-----0-----0-----0----------------|
G|-----------------------------------------------------------------------------|
D|-2-----4-----------------2-----4------5-----7-----2-----4-----5------4-------|
A|-------------2-----5---------------------------------------------------------|
E|---0-----0-----0-----0------------------0-----0-----0-----0------------------|

e|-----------------------------------------------------------------------------|
B|-----0-----0-----0-----0-----------------------------0-----0-----0-----------|
G|-----------------------------------------------------------------------------|
D|-2-----4-----------------2-----4---------2-----2---2-----2-----2---2---------|
A|-------------2-----5-------------------2-----2-------------------------------|
E|---0-----0-----0-----0---------------3-----5-----0-----0-----0---------------|

                              x4
e||-----------------------------||---------------------------------|-----------------------------||
B||-----------------------------||---------------------------------|-----------------------------||
G||*---------------------------*||---------------------------------|-----------------------------||
D||*-2-----2-----2-----2-------*||-----2-----2-------2-----2-----2-|-----2-----2-----------2-----||
A||---2-----2-----2-----2---2---||---2-----2-------2---2-----2-----|---2-----2--------2----------||
E||-----0-----0-----0-----0-----||-3-----5-----0---------0-----0---|-3-----5-----0---------------||



************************************

| * reprise

************************************

            
            
Suggest correction
Creating personal tab
Creating personal tab
You can edit any tab online and save it as your Personal.

You can edit, replace or remove any tab part or add personal notes – all changes will be seen only by you.

Personal tabs can be accessed anytime from any device, even offline.
Learn more »
Give kudos to tab author, rate the tab!
1 2 3 4 5
comments
print report bad tab
guest
You may want to rate the tab now too:
select rating
Wanna post a correction for this tab? Suggest correction