Oops, an error
Loading. Please wait.

The Legacy bass

version 1
version 1

Whole song

Interactive

3,079 views 1 this week
5 commentsread comments
1 2 3 4 5
x 4
add to favorites
×
Save as Personal and add changes to this tab that will be seen only by you. Learn more ›
×
You can save this tab as Personal to edit and correct it or add notes. All changes will be seen only by you. Learn more »
launch autoscroll
font size
0
reset
guitar tuner
edit
Autoscroll
slow
fast
+/-
esc
set tempo
stop
Author
Unregistered
----------------------------------------------------------------------------
                             SONG NAME - Band Name
----------------------------------------------------------------------------

Tabbed By :Anymous tabber
e-mail:Gunsnrosesfeak@msn.com

Tuning:Standard
                          


G|------7----------7-----------7-----------7------|
D|----7---7------7---7-------7---7-------7---7----|
A|-5----------5-----------5-----------5-----------|X2
E|------------------------------------------------|

G|------7---------(9)----------7-----------9------|
D|----7---7------7---7-------7---7-------7---7----|
A|-5----------5-----------5-----------5-----------|
E|------------------------------------------------|

G|------7----------7-----------7-----------9------|
D|----7---7------7---7-------7---7-------7---7----|
A|-5----------5-----------5-----------5-----------|
E|------------------------------------------------|


G|------7----------7-----------7-----------7------|
D|----7---7------7---7-------7---7-------7---7----|
A|-5----------5-----------5-----------5-----------|X10
E|------------------------------------------------|
                  1:10
G|------7----------7-----------7-----------9------|
D|----7---7------7---7-------7---7-------7---7----|
A|-5----------5-----------5-----------5-----------|X3
E|------------------------------------------------|

G|------7----------7-----------7----------7-------|
D|----7---7------7---7-------7---7--------7-------|
A|-5----------5-----------5---------------5-------|
E|------------------------------------------------|
               1:34
G|--12--10--12--10--12-10--10--9--------------|
D|--------------------------------------------|
A|--------------------------------------------|X2
E|--------------------------------------------|
               1:49 
G|14-14-14-14-14-14-14-14-14-15-15-15-15-14-12-14-|
D|------------------------------------------------|
A|------------------------------------------------|X2
E|------------------------------------------------|

G|12-12-12-12-12-12-12-12-12-14-14-14-14-12-10-10-|
D|------------------------------------------------|
A|------------------------------------------------|
E|------------------------------------------------|

G|14-14-14-14-14-14-14-14-14-15-15-15-15-14-12-12-|
D|------------------------------------------------|
A|------------------------------------------------|X3
E|------------------------------------------------|

G|12-12-12-12-12-12-12-12-12-14-14-14-14-12-10-10-|
D|------------------------------------------------|
A|------------------------------------------------|
E|------------------------------------------------|

G|14-14-14-14-14-14-14-14-14-15-15-15-15-14-12-14-|
D|------------------------------------------------|
A|------------------------------------------------|
E|------------------------------------------------|
                  2:15
G|--12--10--12--10--12-10--10--9--9---------|
D|------------------------------------------|
A|------------------------------------------|X2
E|------------------------------------------|
                  2:29
G|14-14-14-14-14-14-14-14-14-15-15-15-15-14-12-14-|
D|------------------------------------------------|
A|------------------------------------------------|X2
E|------------------------------------------------|
                 2:36
G|12-12-12-12-12-12-12-12-12-14-14-14-14-12-10-10-|
D|------------------------------------------------|
A|------------------------------------------------|
E|------------------------------------------------|

G|14-14-14-14-14-14-14-14-14-15-15-15-15-14-12-12-|
D|------------------------------------------------|
A|------------------------------------------------|
E|------------------------------------------------| 
                      2:42
G|12-12-12-12-12-12-12-12-12-12-12-12-12-12-12-12-12/10-10-10-10-10-10-|
D|---------------------------------------------------------------------|
A|---------------------------------------------------------------------|X2
E|---------------------------------------------------------------------|
                      2:55
G|--12--10--12--10--12-10--10-----(14)--------|
D|-----------------------------14-------------|
A|--------------------------------------------|X2
E|--------------------------------------------|
                      3:10
G|--------------------------------------------|
D|--------------------------------------------|
A|-5-555-555-555-555-558--887h8p7-------------|X6
E|-------------------------------8------------|
                      3:42
G|-------------------------------7------------|
D|-----------------------------57---750-------|
A|-5-555-555-555-555-555-555--5---------------|
E|--------------------------------------------|

G|------------------------7-------------------|
D|----------------------57---750--------------|
A|------------5-555-555-----------------------|X4
E|--------------------------------------------|
                      3:59
G|--------------------------------------------|
D|-------------5-555-555-555555---------------|
A|--------------------------------------------|
E|--------------------------------------------|
                      4:02 
G|-------------7-777-777-777777---------------|
D|--------------------------------------------|
A|--------------------------------------------|
E|--------------------------------------------|
                      4:04
G|--------------------------------------------|
D|--------------------------------------------|
A|-5-555-555-555-555-558--887h8p7-------------|X4
E|-------------------------------8------------|
                      4:26              
G|------------------------7-------------------|
D|----------------------57---750--------------|
A|------------5-555-555-----------------------|X4
E|--------------------------------------------|
                     4:42
 G|-------------------------------------------|
D|-------------5-555-555-555555---------------|
A|--------------------------------------------|
E|--------------------------------------------|
                     4:45
G|-------------7-777-777-777777---------------|
D|--------------------------------------------|
A|--------------------------------------------|
E|--------------------------------------------|
                    Chorus
                     4:47
G|----------------------------------------------|
D|----------------555----5-7-5------------------|
A|-555-0-5-7-----------8-------8-7-5------------|X4
E|------------8---------------------------------|
                     5:11 
G|--12--10--12--10--12-10--10--9--14--------|
D|------------------------------------------|
A|------------------------------------------|X2
E|------------------------------------------|
                    5:35
G|--------------------------------------------------------|
D|--------------------------------------------------------|
A|-5-7-8-10-8-10-12-10-8-10-8-7-5-7-8-10-8-10-12-10-8-10--|
E|--------------------------------------------------------|

G|----------------------------------------------------|
D|------------------------------8-7-5-7-5-3-5-3-2-3---|
A|-5-7-8-10-8-10-12-10-8-10-8-7-----------------------|X2
E|----------------------------------------------------|
                       5:49
G|---------------------------------------------------------|
D|---------------------------------------------------------|
A|--7-7---3-3---5-5---------7-7---3-3---5-5----------------|X4
E|--------------------5-5-----------------------3-3-3-2-0--|
                      6:16
G|--------------------------------------------------------------|
D|--------------------------------------------------------------|
A|-7-9-10-12-10-12-14-12-10-12-10-9-7-9-10-12-10-12-14-12-10-12-|
E|--------------------------------------------------------------|

G|---------------------------------------------------------|
D|-----------------------------------10-8-7-8-7-5-7-5-3-5--|
A|-7-9-10-12-10-12-14-12-10-12-10-9------------------------|X2
E|---------------------------------------------------------|
                       6:29
G|------------------------------------------------|
D|------------------------------------------------|
A|-7-7777777---3-3333333---0-0000000--------------|
E|-------------------------------------1-1111111--|X4
                       6:55
G|------------------------------------------------|
D|-------------------------------------5-555553---|
A|-7-7777777---3-3333333---5-5555555-----------5--|X4
E|------------------------------------------------|
                     7:21

G|------------------------------------------------|
D|------------------------------------------------|
A|-7-7777777---3-3333333---0-0000000--------------|
E|-------------------------------------1-1111111--|X2
                      7:34
G|------------------------------------------------|
D|-------------------------------------5-555553---|
A|-7-7777777---3-3333333---5-5555555-----------5--|X4
E|------------------------------------------------|
                      7:59
G|------------------------------------------------|
D|------------------------------------------------|
A|-7-7777777---3-3333333---0-0000000--------------|
E|-------------------------------------1-1111111--|X4
                      8:25
G|--------------------------------------------------------|
D|--------------------------------------------------------|
A|-5-7-8-10-8-10-12-10-8-10-8-7-5-7-8-10-8-10-12-10-8-10--|
E|--------------------------------------------------------|

G|----------------------------------------------------|
D|------------------------------8-7-5-7-5-3-5-3-2-3---|
A|-5-7-8-10-8-10-12-10-8-10-8-7-----------------------|
E|----------------------------------------------------|

G|--------------------------------------------------------|
D|--------------------------------------------------------|
A|-5-7-8-10-8-10-12-10-8-10-8-7-5-7-8-10-8-10-12-10-8-10--|
E|--------------------------------------------------------|

G|--------------------------------------------------------|
D|------------------------------8-7-5-7-5-3-5-3-2-3-2-----|
A|-5-7-8-10-8-10-12-10-8-10-8-7-----------------------3-5-|
E|--------------------------------------------------------|
                      8:50
G|--12--10--12--10--12-10--10--9--------------|
D|--------------------------------------------|
A|--------------------------------------------|
E|--------------------------------------------|

G|--12--10--12--10--12-10--10--9-----7--------|
D|-----------------------------------7--------|
A|-----------------------------------5--------|
E|--------------------------------------------|

            
            
Suggest correction
Creating personal tab
Creating personal tab
You can edit any tab online and save it as your Personal.

You can edit, replace or remove any tab part or add personal notes – all changes will be seen only by you.

Personal tabs can be accessed anytime from any device, even offline.
Learn more »
comments
print report bad tab
5 comments total. Showing first comments.
-1 reply
saberrocks 1,167 Sep 19, 2006 09:31 AM

i don't know this one. is there a song called legacy of the beast?

0 reply
anonymoustabber 10 Sep 20, 2006 02:21 PM

i sent this tab in and its called the legacy and i want them to change it how d i do so?

0 reply
semus 222 Oct 03, 2006 02:58 PM

i guess u have to re-register it...

about the tab - real nice, im pretty sure its almost 100% accurate,
im just not sure about the rythm of the intro... a bit confusing..

guest
Wanna post a correction for this tab? Suggest correction