Oops, an error
Loading. Please wait.

The Loneliness Of The Long Distance Runner Tab

version 2
version 2

Intro

Whole song

Interactive

1,147 views 1 this week
no commentswrite comment
1 2 3 4 5
2 more votes to show rating
add to favorites
launch autoscroll
font size
0
reset
how to read this tab
guitar tuner
Autoscroll
slow
fast
+/-
esc
set tempo
stop
Help us to improve Ultimate-Guitar.com Take our survey!
×
Author
Difficulty
intermediate
Band: Iron Maiden
Song: The Loneliness Of The Long Distance Runner (Intro)
Tabbed by: PJNewton


|----------------------------------------------------------|
|----------------------------------------------------------|
|-9--9--11--12-14--12--11--12--7--9--11-12--12p11p9-7h9----|
|----------------------------------------------------------|
|----------------------------------------------------------|
|----------------------------------------------------------|


|----------------------------------------------------------|
|----------------------------------------------------------|
|-9--9--11--12-14--12--11--12--7--9--11-12--12p11p9-7------|
|----------------------------------------------------------|
|----------------------------------------------------------|
|----------------------------------------------------------|

|-----------------------------------------------------------|
|-9--11--12-14--12--11--12--6--6-9--11--11p10p8-6h9---------|
|-----------------------------------------------------------|
|-----------------------------------------------------------|
|-----------------------------------------------------------|
|-----------------------------------------------------------|

|-----------------------------------------------------------|
|-9--11--12-14--12--11--12--6--6-9--11--11p10p8-6-----------|
|-----------------------------------------------------------|
|-----------------------------------------------------------|
|-----------------------------------------------------------|
|-----------------------------------------------------------|

|---------------------------------|
|---------------------------------|
|---------------------------------|
|-9--5--7--9--7--9----------------|
|-7--3--5--7--5--7----------------|
|---------------------------------|

|---------------------------------|
|---------------------------------|
|---------------------------------|
|-5--7--9--7----------------------|
|-3--5--7--5----------------------|
|---------------------------------|

|---------------------------------|
|---------------------------------|
|---------------------------------|
|-12--8--10-12--8--10-12----------|
|-10--6--8--10--6--8--10----------|
|---------------------------------|

|---------------------------------|
|---------------------------------|
|---------------------------------|
|-8-10--12--10--------------------|
|-6--8--10--8---------------------|
|---------------------------------|
Suggest correction
Give kudos to tab author, rate the tab!
1 2 3 4 5
comments
print report bad tab
guest
You may want to rate the tab now too:
select rating
Wanna post a correction for this tab? Suggest correction