Oops, an error
Loading. Please wait.

The Mercenary Bass Tab

version 1
version 1

Whole song

Interactive

664 views 3 this week
no commentswrite comment
1 2 3 4 5
please rate
add to favorites
launch autoscroll
font size
0
reset
guitar tuner
Autoscroll
slow
fast
+/-
esc
set tempo
stop
Help us to improve Ultimate-Guitar.com Take our survey!
×
Author
Iron Maiden
The Mercenary
Standard Tuning: GDAE

Intro
G||--------------------------|----------------------------|
D||--------------------------|----------------------------|
A||--------7--------5--------|--7--7-----10--L--9---------|
E||--0--0-----0--0-----0--0--|--------0------------10--8--|                           
                              

G||--------------------------|----------------------------|
D||--------------------------|----------------------------|
A||--------7--------5--------|--7--7-----10--L--9---------|
E||--0--0-----0--0-----0--0--|--------0------------10--8--|

G||--------------------------|----------------------------|
D||--------------------------|----------------------------|
A||--------7--------5--------|--7--7-----10--L--9---------|
E||--0--0-----0--0-----0--0--|--------0------------10--8--|

G||--------------------------|----------------------------|
D||--------------------------|----------------------------|
A||--------7--------5--------|--7--7-----10--L--9---------|
E||--0--0-----0--0-----0--0--|--------0------------10--8--|

Verse

|--------------------------|----------------------------|
|--------------------------|----------------------------|
|--7--7--7--7--5--5--5--5--|--7--7--7--9--9--9--10--10--|
|--------------------------|----------------------------|

|--------------------------|--------------------------|
|--------------------------|--------------------------|
|--7--7--7--7--5--5--5--5--|--7--7--7--3--3--3--5--5--|
|--------------------------|--------------------------|

|--------------------------|----------------------------|
|--------------------------|----------------------------|
|--7--7--7--7--5--5--5--5--|--7--7--7--9--9--9--10--10--|
|--------------------------|----------------------------|

|--------------------------|--------------------------|
|--------------------------|--------------------------|
|--7--7--7--7--5--5--5--5--|--7--7--7--3--3--3--5--5--|
|--------------------------|--------------------------|


|--------------------------|----------------------------|
|--------------------------|----------------------------|
|--7--7--7--7--5--5--5--5--|--7--7--7--9--9--9--10--10--|
|--------------------------|----------------------------|

|--------------------------|--------------------------|
|--------------------------|--------------------------|
|--7--7--7--7--5--5--5--5--|--7--7--7--3--3--3--5--5--|
|--------------------------|--------------------------|

|--------------------------|----------------------------|
|--------------------------|----------------------------|
|--7--7--7--7--5--5--5--5--|--7--7--7--9--9--9--10--10--|
|--------------------------|----------------------------|

|--------------------------|--------------------------|
|--------------------------|--------------------------|
|--7--7--7--7--5--5--5--5--|--7--7--7--3--3--3--5--5--|
|--------------------------|--------------------------|


|--------------------------|----------------------------|
|--------------------------|----------------------------|
|--7--7--7--7--5--5--5--5--|--7--7--7--9--9--9--10--10--|
|--------------------------|----------------------------|

|--------------------------|--------------------------|
|--------------------------|--------------------------|
|--7--7--7--7--5--5--5--5--|--7--7--7--3--3--3--5--5--|
|--------------------------|--------------------------|



Pre-Chorus
--------------------------|--------------------------|
--------------------------|--------------------------|
--7--7--7--7--7--7--7--7--|--7--7--7--7--7--7--7--7--|
--------------------------|--------------------------|

--------------------------|--------------------------|
--------------------------|--------------------------|
--5--5--5--5--5--5--5--5--|--5--5--5--5--5--5--3--3--|
--------------------------|--------------------------|

--------------------------|--------------------------|
--------------------------|--------------------------|
--3--3--3--3--3--3--3--3--|--3--3--3--3--3--3--3--3--|
--------------------------|--------------------------|

--------------------------|--------------------------|
--------------------------|--------------------------|
--5--5--5--5--5--5--5--5--|--5--5--5--5--5--5--5--5--|
--------------------------|--------------------------|

--------------------------|--------------------------|
--------------------------|--------------------------|
--------------------------|--------------------------|
--7--7--7--7--7--7--7--7--|--7--7--7--7--7--7--7--7--|

--------------------------|--------------------------|
--------------------------|--------------------------|
--5--5--5--5--5--5--5--5--|--5--5--5--5--5--5--5--5--|
--------------------------|--------------------------|

--------------------------|--------------------------|
--------------------------|--------------------------|
--3--3--3--3--3--3--3--3--|--3--3--3--3--3--3--3--3--|
--------------------------|--------------------------|

--------------------------|--------------------------|
--------------------------|--------------------------|
--5--5--5--5--5--5--5--5--|--5--5--5--5--5--5--5--5--|
--------------------------|--------------------------|


Bridge

G||--------------------------|----------------------------|
D||--------------------------|----------------------------|
A||--------7--------5--------|--7--7-----10--L--9---------|
E||--0--0-----0--0-----0--0--|--------0------------10--8--|                           
                              

G||--------------------------|----------------------------|
D||--------------------------|-----------------------7----|
A||--------7--------5--------|--7--7-----10--L--9---------|
E||--0--0-----0--0-----0--0--|--------0-------------------|


Chorus

--------------------------|--------------------------|
--7--7--7--7--7--7--7--7--|--7--7--7--7--7--7--7--7--|
--------------------------|--------------------------|
--------------------------|--------------------------|


--------------------------|--------------------------|
--5--5--5--5--5--5--5--5--|--5--5--5--5--5--5--5--5--|
--------------------------|--------------------------|
--------------------------|--------------------------|

--------------------------|--------------------------|
--------------------------|--------------------------|
--5--5--5--5--5--5--5--5--|--5--5--5--5--5--5--5--5--|
--------------------------|--------------------------|

--------------------------|--------------------------|
--------------------------|--------------------------|
--5--5--5--5--5--5--5--5--|--5--5--5--5--5--5--5--5--|
--------------------------|--------------------------|

--------------------------|--------------------------|
--7--7--7--7--7--7--7--7--|--7--7--7--7--7--7--7--7--|
--------------------------|--------------------------|
--------------------------|--------------------------|


--------------------------|--------------------------|
--5--5--5--5--5--5--5--5--|--5--5--5--5--5--5--5--5--|
--------------------------|--------------------------|
--------------------------|--------------------------|

--------------------------|--------------------------|
--------------------------|--------------------------|
--5--5--5--5--5--5--5--5--|--5--5--5--5--5--5--5--5--|
--------------------------|--------------------------|

--------------------------|--------------------------|
--------------------------|--------------------------|
--5--5--5--5--5--5--5--5--|--5--5--5--5--5--5--5--5--|
--------------------------|--------------------------|

Solo 

--------------------------|--------------------------|
--------------------------|--------------------------|
--------------------------|--------------------------|
--7--7--7--7--7--7--7--7--|--7--7--7--7--7--7--7--7--|


  
--------------------------|--------------------------|
--------------------------|--------------------------|
--------------------------|--------------------------|
--5--5--5--5--5--5--5--5--|--5--5--5--5--5--5--5--5--|


 
--------------------------|--------------------------|
--------------------------|--------------------------|
--------------------------|--------------------------|
--7--7--7--7--7--7--7--7--|--7--7--7--7--7--7--7--7--|


--------------------------|--------------------------|
--------------------------|--------------------------|
--5--5--5--5--5--5--5--5--|--5--5--3--3--3--3--3--3--|
--------------------------|--------------------------|


 
--------------------------|--------------------------|
--------------------------|--------------------------|
--------------------------|--------------------------|
--7--7--7--7--7--7--7--7--|--7--7--7--7--7--7--7--7--|


  
--------------------------|--------------------------|
--------------------------|--------------------------|
--------------------------|--------------------------|
--5--5--5--5--5--5--5--5--|--5--5--5--5--5--5--5--5--|


   
--------------------------|--------------------------|
--------------------------|--------------------------|
--------------------------|--------------------------|
--7--7--7--7--7--7--7--7--|--7--7--7--7--7--7--7--7--|


  
--------------------------|--------------------------|
--------------------------|--------------------------|
--5--5--5--5--5--5--5--5--|--5--5--3--3--3--3--3--3--|
--------------------------|--------------------------|



--------------------------|--------------------------|
--------------------------|--------------------------|
--7--7--7--7--7--7--7--7--|--7--7--7--7--3--3--3--3--|
--------------------------|--------------------------|
  

--------------------------|--------------------------|
--------------------------|--------------------------|
--3--3--3--3--3--3--3--3--|--3--3--3--3--5--5--5--5--|
--------------------------|--------------------------|


  
--------------------------|--------------------------|
--------------------------|--------------------------|
--5--5--5--5--5--5--5--5--|--7--7--7--7--7--7--7--7--|
--------------------------|--------------------------|


  
--------------------------|--------------------------|
--------------------------|--------------------------|
--7--7--7--7--3--3--3--3--|--3--3--3--3--3--3--3--3--|
--------------------------|--------------------------|


  
--------------------------|--------------------------|
--------------------------|--------------------------|
--3--3--3--3--5--5--5--5--|--5--5--5--5--5--5--5--5--|
--------------------------|--------------------------|


   
--------------------------|--------------------------|
--------------------------|--------------------------|
--7--7--7--7--7--7--7--7--|--7--7--7--7--3--3--3--3--|
--------------------------|--------------------------|

  
--------------------------|--------------------------|
--------------------------|--------------------------|
--3--3--3--3--3--3--3--3--|--3--3--3--3--5--5--5--5--|
--------------------------|--------------------------|


                
--------------------------|-------------------|
--------------------------|-------------------|
--5--5--5--5--5--5--5--5--|--7----------------|
--------------------------|-------------------|
Suggest correction
What's this?
You can suggest a correction to this tab. Community and Mods will review your correction and vote to approve or reject it.
comments
We did not receive enough feedback on this tab! Please rate:
print report bad tab
1 2 3 4 5
guest
You may want to rate the tab now too:
select rating
Please do not post tabs as comments. Select "correction" instead!