Oops, an error
Loading. Please wait.

The Number Of The Beast Bass

version 2
version 2
62,931 views 27 this week
12 commentsread comments
1 2 3 4 5
x 43
add to favorites
launch autoscroll
font size
0
reset
guitar tuner
backing track
0:00
0:00
×
Best way to learn
"The Number Of The Beast"
Autoscroll
slow
fast
+/-
esc
set tempo
stop
All textual notes refer to the tab ABOVE it. Any comments, suggestions,
or errors refering to the tab below that should be brought to my attention,
please e-mail me. If you would like to join my Bass Tab mailing list ( or
my brother's Guitar Tab mailing list) please e-mail me.


Tab explanations
-----------------------------------------------------
>   Accent                 |      /   Slide up
.   Staccatto              |      \   Slide down
h   Hammer-on/ pull off    |      :   Repeat
†   Harmonic               |      ~   slight bend
-----------------------------------------------------


The Number of the Beast ( Harris )
 ( From the album " Number of the Beast " )

Intro - Recite Bible verse
G|---------------------------|-----------11----12----14------14-------14-------|
D|---------------------------|.-12-12-12----12----12----12-12---12-12----12-12-|
A|---------------------------|.------------------------------------------------|
E|---------------------------|-------------------------------------------------|

 Vocals enter
G|-14-------14-----------11----12-----14-------14-------14-------14-------14---|
D|----12-12----12--12-12----12----12-----12-12----12-12----12-12----12-12------|
A|-----------------------------------------------------------------------------|
E|-----------------------------------------------------------------------------|


G|----------9----10----12-------12-------12-------12----------9----10----14----|
D|-10-10-10---10----10----10-10----10-10----10-10----10-10-10---10----10----12-|
A|-----------------------------------------------------------------------------|
E|-----------------------------------------------------------------------------|

                                                                    End Intro
G|----14--------14--------14---|---------->----------->-------------------------|
D|-12----12--12----12--12-----.|-0-0-0-0--0--0-0-0-0--0------------>--0-0-0-0-0-|
A|----------------------------.|--------------------------3-3-3-3--3------------|
E|-----------------------------|------------------------------------------------|

Faster
G|------------------------------------------------------------------------------|
D|------------------------------------------------------------------------------|
A|-3h5-5-5-5--5-5-5-5--5-5-5-5--3h5-5-5-5--5-5-5-5--5-5-5-5--3h5-5-5-5--5-5-5-5-|
E|------------------------------------------------------------------------------|


G|------------------------------------------------------------------------------|
D|------------------------------------------------------------------------------|
A|-5-5-5-5--3-3-3-3-3-2-----5-5-5-5--5-5-5---3h5-5-5-5--5-5-5-5--5-5-5-5--3h5-5-|
E|-----------------------3------------------------------------------------------|

G|------------------------------------------------------------------------------|
D|------------------------------------------------------------------------------|
A|-5-5-5--5-5-5-5--5-5-5-5--3h5-5-5-5--5-5-5-5--5-5-5-5--3-3-3-3-3-2----5-5-5-5-|
E|--------------------------------------------------------------------3---------|

G|-------------------------------------------------------------------7---------|
D|---------------------------------------------------------------5-7---7--5----|
A|-5-5-5---3-3-3-3--3-3-3--2-2-2-2--2-2-2-2--3-3-3-3--3-3-3--55----------------|
E|-----------------------------------------------------------------------------|
         "Six..Six six..."

G|------------------------------------------------------------------------------|
D|------------------------------------------------------------------------------|
A|-3-3-3-3--3-3-3--2-2-2-2--2-2-2-2--3-3-3-3--3-3-3-3h5-5-5-5--5-5-5-5--5-5-5-5-|
E|------------------------------------------------------------------------------|

G|------------------------------------------------------------------------------|
D|------------------------------------------------------------------------------|
A|-3h5-5-5-5--5-5-5-5--5-5-5-5--3h5-5-5-5--5-5-5-5--5-5-5-5--3-3-3-3-3-2----5-5-|
E|------------------------------------------------------------------------3-----|
 "Torches blaze..."

G|-----------------------------------------------------------------------------|
D|-----------------------------------------------------------------------------|
A|-5-5--5-5-5--3h5-5-5-5--5-5-5-5--5-5-5-5--3h5-5-5-5--5-5-5-5--5-5-5-5--3h5-5-|
E|-----------------------------------------------------------------------------|

G|------------------------------------------------------------------------------|
D|------------------------------------------------------------------------------|
A|-5-5--5-5-5-5--5-5-5-5--3-3-3-3-3-2-----5-5-5-5--5-5-5--3-3-3-3--3-3-3--2-2-2-|
E|-------------------------------------3----------------------------------------|

G|------------------------------------7-----------------------------------------|
D|--------------------------------5-7---7-5-------------------------------------|
A|-2--2-2-2-2--3-3-3-3--3-3-3--55-----------3-3-3-3--3-3-3--2-2-2-2--2-2-2-2--3-|
E|------------------------------------------------------------------------------|

                Intermission
G|-----------------------------------------------------------------------------|
D|-------------------7-------7-------9-------9--------10-----------10---10-----|
A|-3-3-3--3-3-3--5-5---5-5-5---5-7-7---7-7-7---7---8-8----10-10-10----8----8-8-|
E|-----------------------------------------------------------------------------|

G|------------------------------------------------------------------------------|
D|10----10---------7-------7-------9-------9-------10----------10----10---10----|
A|---8-8---8--5-5----5-5-5---5-7-7---7-7-7---9-8-8----10-10-10----10---8-8--8-8-|
E|------------------------------------------------------------------------------|

G|------------------------------------------------------------------------------|
D|10--------7-------7-------9-------9-------10----------10----10-----10----10---|
A|---8--5-5---5-5-5---5-7-7---7-7-7---7-8-8----10-10-10----10----8-8----8-8---8-|
E|------------------------------------------------------------------------------|

G|-----------------------------------------------------------------------|
D|-----7-------7-------9-------9-------10----------10----10------10------|
A|-5-5---5-5-5---5-7-7---7-7-7---7-8-8----10-10-10----10-----8-8----8-8--|
E|-----------------------------------------------------------------------|

Guitar Solo
G|------------------------------------------------------------------------------|
D|------------------------------------------------------------------------------|
A|--1--1-1-1--1-1-1-1--1-1-1-1--1-1-1---------------------------------------0-1-|
E|-------------------------------------0-1--1-1-1--1-1-1-1--1-1-1-1--1-1-1------|

G|-----------------------------------------------------------------------------|
D|-----------------------------------------------------------------------------|
A|-1-1-1--1-1-1-1--1-1-1-1--1-1-1---------------------------------------0-1--1-|
E|---------------------------------0-1--1-1-1--1-1-1-1--1-1-1-1--1-1-1---------|

G|-----------------------------------------------------------------------------|
D|-----------------------------------------------------------------------------|
A|-1-1--1-1-1-1--1-1-1-1--1-1-1---------------------------------------0-1--1-1-|
E|-------------------------------0-1--1-1-1--1-1-1-1--1-1-1-1--1-1-1-----------|

G|---------------------------------------------------------------------------.-|
D|--------------------------------------------------------------------7-7-7--5-|
A|-1--1-1-1-1--1-1-1-1--1-1-1--------------------------------------------------|
E|-----------------------------0-1--1-1-1--1-1-1-1--1-1-1-1--1-1-1-------------|

G|-----7-----5-------------------------------.----5---3-------------------------|
D|--7-----7-----7---5--3--7--3--2-3---5-5-5--3--5---5---5--3--1--5--1-------5-5-|
A|---------------------------------------------------------------------3-5------|
E|------------------------------------------------------------------------------|

G|-----------------------------------------------------------------------------|
D|-5--3---3-3-3--3-3-3-3--3-3-3-3--3-3-3--5--5-5-5-5--5-5-5--7--7-7-7--10-10---|
A|-----------------------------------------------------------------------------|
E|-----------------------------------------------------------------------------|

Guitar Solo 2
G|--------------9---------------------4--------------------5-------------------|
D|--------7--9-----9--7---------2--4-----4--2--------3--5-----5--3-------7-----|
A|--7--9------------------0--2-----------------3--5-----------------5--7-------|
E|-----------------------------------------------------------------------------|

G|-------9------------7--9--7-----------------4-----------------3--5--3--------|
D|----9------------7-----------9--------2--4-----4--2--------3-----------5-----|
A|-7---------7--9-----------------0--2-----------------3--5--------------------|
E|-----------------------------------------------------------------------------|

G|-------7---------9-------------7--9--7-----------------4---------------3--5--|
D|-5--7------7--9-------------7-----------9--------2--4-----4--2-------3-------|
A|----------------------7--9-----------------0--2-----------------3--5---------|
E|-----------------------------------------------------------------------------|

G|--3-------------7--------9---------------7---------------------4-------------|
D|-----5----5--7------7--9-----------7--9-----9--7---------2--4-----4--2-------|
A|------------------------------7--9-----------------0--2-----------------3--5-|
E|-----------------------------------------------------------------------------|

G|--------3---------------7---------9---/19---19-19-19-19--------10---10-10-10-|
D|--3--5-----5--3------7----------9-----------------------19-17----------------|
A|------------------5----------7-----------------------------------------------|
E|-----------------------------------------------------------------------------|

G|-10---10-10--12--12-12-12-12---12-12--15--15---17--17---/19---19-19-19-19----|
D|-----------------------------------------------------------------------------|
A|-----------------------------------------------------------------------------|
E|-----------------------------------------------------------------------------|

                                                                    End Solo
G|-10---10-10-10-10---10--10---12---12-12-12-12---12---12---15--15----17---17-|
D|----------------------------------------------------------------------------|
A|----------------------------------------------------------------------------|
E|----------------------------------------------------------------------------|

G|------------------------------------------------------------------------------|
D|------------------------------------------------------------------------------|
A|-3h5-5-5-5--5-5-5-5--5-5-5-5--3h5-5-5-5--5-5-5-5--5-5-5-5--3h5-5-5-5--5-5-5-5-|
E|------------------------------------------------------------------------------|

G|------------------------------------------------------------------------------|
D|------------------------------------------------------------------------------|
A|-5-5-5-5--3-3-3-3-3-2-----5-5-5-5--5-5-5---3h5-5-5-5--5-5-5-5--5-5-5-5--3h5-5-|
E|-----------------------3------------------------------------------------------|

G|------------------------------------------------------------------------------|
D|------------------------------------------------------------------------------|
A|-5-5-5--5-5-5-5--5-5-5-5--3h5-5-5-5--5-5-5-5--5-5-5-5--3-3-3-3-3-2----5-5-5-5-|
E|--------------------------------------------------------------------3---------|

G|-------------------------------------------------------------------7---------|
D|---------------------------------------------------------------5-7---7--5----|
A|-5-5-5---3-3-3-3--3-3-3--2-2-2-2--2-2-2-2--3-3-3-3--3-3-3--55----------------|
E|-----------------------------------------------------------------------------|

G|----------------------------------------------------|
D|----------------------------------------------------|
A|-3-3-3-3--3-3-3--2-2-2-2--2-2-2-2--3-3-3-3--3-3-3-3-|
E|----------------------------------------------------|

[Outro]
G|----------11----12----14------14-------14-------14------14-----------11------|
D|-12-12-12----12----12----12-12---12-12----12-12---12-12----12--12-12----12---|
A|-----------------------------------------------------------------------------|
E|-----------------------------------------------------------------------------|


G|12----14--------14-------14-------14-------14------------9----10----12-------|
D|---12-----12-12----12-12----12-12----12-12------10-10-10---10----10----10-10-|
A|-----------------------------------------------------------------------------|
E|-----------------------------------------------------------------------------|

G|-12-------12-------12----------9----10----14-------14--------14--------14---|
D|----10-10----10-10----10-10-10---10----10----12-12----12--12----12--12-----.|
A|---------------------------------------------------------------------------.|
E|----------------------------------------------------------------------------|

G|---------->----------->---------------------.----------||
D|-0-0-0-0--0--0-0-0-0--0------------>--0-0-0-0-->->->---||
A|--------------------------3-3-3-3--3-----------5-3-5\--||
E|-------------------------------------------------------||

************************************

| h  Hammer-on
| /  Slide up
| \  Slide down

************************************
Suggest correction
comments
print report bad tab
12 comments total. Showing first comments.
+3 reply
MetallicaRuLeZ 10 Jan 26, 2006 08:29 AM

thx man great tab

+2 reply
METSOAD 1,622 Mar 17, 2006 06:19 AM

PERFECT

+2 reply
runtothehills29 10 Apr 28, 2008 01:53 PM

pretty good but chorus is a little wrong, because I know it doesn't sound right

guest
You may want to rate the tab now too:
select rating
Wanna post a correction for this tab? Suggest correction