Oops, an error
Loading. Please wait.

The Pilgrim intro tab

version 1
version 1

Intro

Whole song

Interactive

13,710 views 1 this week
5 commentsread comments
1 2 3 4 5
x 10
add to favorites
×
Save as Personal and add changes to this tab that will be seen only by you. Learn more ›
×
You can save this tab as Personal to edit and correct it or add notes. All changes will be seen only by you. Learn more »
launch autoscroll
font size
0
reset
how to read this tab
guitar tuner
edit
Autoscroll
slow
fast
+/-
esc
set tempo
stop
Author
The Pilgrim (Intro)
A Matter Of Life And Death
Iron Maiden

This is my fist try for a tab and I haven't seen any other tab from this album yet 
(except track nr.7 which first came as a single.) so I hope that the first tab will be a good one. I 
think that this song has the best intro on the album.

e|-7-7-----------|--------7-8-7~-|-7-------------|-7-7-----------|
B|-----10-8-7----|--10-10--------|---10-8-7------|-----10-8-7----|
G|------------9~-|---------------|----------9~---|------------9~-|
D|---------------|---------------|---------------|---------------|
A|---------------|---------------|---------------|---------------|
E|---------------|---------------|---------------|---------------|
                 
***I have changed this part of the tab from: e|-------------7-|
I think it sounds better now***              B|--10-10-8-10---|
                                            

e|---------------|
B|-10-10-8-7-----|
G|-----------9---|
D|---------------|
A|---------------|
E|---------------|

This is played twice, but after the first time there is the additional...

e|---------------|
B|-8-7-----------|
G|-----9-7--9~---|
D|---------------|
A|---------------|
E|---------------|

...And then the rest of the song starts

            
            
Suggest correction
Creating personal tab
Creating personal tab
You can edit any tab online and save it as your Personal.

You can edit, replace or remove any tab part or add personal notes – all changes will be seen only by you.

Personal tabs can be accessed anytime from any device, even offline.
Learn more »
comments
print report bad tab
5 comments total. Showing first comments.
-1 reply
Sendrith 80 Sep 02, 2006 12:56 PM

i find this easier played on the E aeolian.

|------------------------------------
|--12-12-------------------12-13-12--
|--------14-12-11----14-14-----------
|-----------------14-----------------
|------------------------------------
|------------------------------------

ect

-2 reply
DownbëloW 102 Nov 02, 2006 05:39 PM

play it in 5th position, its easier.

-2 reply
Fender_Tele'71 10 Jul 25, 2007 09:12 PM

i think the tab is good, nice correction too..

guest
You may want to rate the tab now too:
select rating
Wanna post a correction for this tab? Suggest correction