Oops, an error
Loading. Please wait.

The Prisoner Tab

version 2
version 2

Whole song

Interactive

40,273 views 57 this week
6 commentsread comments
1 2 3 4 5
x 17
add to favorites
launch autoscroll
font size
0
reset
how to read this tab
guitar tuner
Autoscroll
slow
fast
+/-
esc
set tempo
stop
Help us to improve Ultimate-Guitar.com Take our survey!
×
Band: Iron maiden
Album: The number of the beast
Song: The prisoner
Tunning: Standart

[Intro]
e|-------------------------------------------------------------------|
B|-------------------------------------------------------------------|
G|-------------------------------------------------------------------|
D|-------------------------------7----2-2-2----2---------2-----2--2--|
A|--9-9-9-7-9--------9-9-9-7-9---5----0-0-0----0---4-4-4-2-4---0--2--|
E|--7-7-7-5-7--------7-7-7-5-7---------------3-----2-2-2-0-2------0--|

e|-------------------------------------------------------------------|
B|-------------------------------------------------------------------|
G|-------------------------------------------------------------------|
D|-----------------------------7-------------------------------------|
A|-9-9-9-7-9------9-9-9-7-9----5-----7-7-7-5-7-----4-4-4-2-4---5--7--|
E|-7-7-7-5-7------7-7-7-5-7----------5-5-5-3-5-----2-2-2-0-2---3--5--|

[Verse]
e|-------------------------------------------------------------------|
B|-------------------------------------------------------------------|
G|-------------------------------------------------------------------|
D|-4---------4----------2-----------4-----4----------7--6---2--------|
A|-2-2-2-2-2-2-2-2-2-2--0-----------2-2-2-2-2-2-2----5--4---0--------|
E|--------------------------4-2-0------------------------------------|

e|----------------------------------3--------------------------------|
B|----------------------------------3--------------------------------|
G|----------------------------------2----------1---------------------|
D|-4-----4----------2--------------------------2---------------------|
A|-2-2-2-2-2-2-2-2--0--------------------------2---------------------|
E|------------------------4-2-0--------------------------------------|

[Interlude]
e|-------------------------------------------------------------------|
B|-------------------------------------------------------------------|
G|-5~~~~-----------7~~~~---------------5~~~~~-------------7~~~~~-----|
D|-5~~~~-----------7~~~~---------------5~~~~~-------------7~~~~------|
A|------0-0-0-0-0--------0-0-0-0-0-0---------0-0-0-0-0-0-------------|
E|-------------------------------------------------------------------|

e|-------------------------------------------------------------------|
B|--8-8-8-8--6-6-5-6--8-8-8-8--6-6-5-6-------------------------------|
G|--7-7-7-7--5-5-4-5--7-7-7-7--5-5-4-5----------9--8-----------------|
D|----------------------------------------------9--9-----------------|
A|-------------------------------------------------------------------|
E|-------------------------------------------------------------------|

e|-------------------------------------------------------------------|
B|-------------------------------------------------------------------|
G|-------------------------------------------------------------------|
D|-2----------4------------------------------------------------------|
A|-0---2------2------------------------------------------------------|
E|-----0-------------------------------------------------------------|

[Chorus]
e|-----0-------------0-------------0---------------------------------|
B|-------0--------------0-------------0------------------------------|
G|----------------------------2--------------------------------------|
D|-9-------------4------------2-------------6-----4------------------|
A|-7-------------2------------0-------------4-----2------------------|
E|-------------------------------------------------------------------|

[Interlude 2]
e|-------------------------------------------------------------------|
B|-------------------------------------------------------------------|
G|----7h11-----7h11----7h11----7h11----------6h9-----6h9-----6h9-----|
D|-9--------9--------9-------9------------7-------7-------7----------|
A|-------------------------------------------------------------------|
E|-------------------------------------------------------------------|

e|-------------------------------------------------------------------|
B|-------------------------------------------------------------------|
G|----6h9------6h9--------3h6------3h6------3h6--------4h7-----------|
D|-7--------7----------4--------4--------4----------5----------------|
A|-------------------------------------------------------------------|
E|-------------------------------------------------------------------|

e|-------------------------------------------------------------------|
B|-------------------------------------------------------------------|
G|----6h9------------------------------------------------------------|
D|-7-----------------------------------------------------------------|
A|-------------------------------------------------------------------|
E|-------------------------------------------------------------------|

e|-------------------------------------------------------------------|
B|-------------------------------------------------------------------|
G|----7h11------7h11------7h12-----7h11-----7h12-------7h11----------|
D|-9---------9---------9--------9--------9----------9----------------|
A|-------------------------------------------------------------------|
E|-------------------------------------------------------------------|

e|-------------------------------------------------------------------|
B|-------------------------------------------------------------------|
G|----7h9--------6h9-------6h9------6h7------6h9------6h7------------|
D|-9----------7--------7---------7--------7--------7-----------------|
A|-------------------------------------------------------------------|
E|-------------------------------------------------------------------|

e|-------------------------------------------------------------------|
B|-------------------------------------------------------------------|
G|----3h6------3h6--------4h7-----------7h9--------------------------|
D|-4-------4-----------5------------6--------------------------------|
A|-------------------------------------------------------------------|
E|-------------------------------------------------------------------|

[Solo 1]
e|-------------------------------------------------------------------|
B|-------------------------------------------------------------------|
G|--7-6-4----------------------------------7-9br9-7------------------|
D|---------7-5-4-------------------7h9~~~~-----------9---------------|
A|----------------7-5-4~~~~---7h9------------------------------------|
E|-------------------------------------------------------------------|

e|-------7-7-7-7------------7------------7---------------------------|
B|-------7-7-7-7---10~~~~~-----10p7h10b----10-7-10b------------------|
G|--9b---------------------------------------------------------------|
D|-------------------------------------------------------------------|
A|-------------------------------------------------------------------|
E|-------------------------------------------------------------------|

e|-7-7-7-10p7------7-------------------------------------------------|
B|-------------10----10-7-10-7----7----------------------------------|
G|------------------------------9---9-7-9-7-----7-------9br9-7-------|
D|-------------------------------------------9----9-7-----------9~~~-|
A|-------------------------------------------------------------------|
E|-------------------------------------------------------------------|

e|-------------------------------------------------------------------|
B|-0-12h15--0-12h15--0-12h15---0-12h14--0-12h15---0-12h14------------|
G|-------------------------------------------------------------------|
D|-------------------------------------------------------------------|
A|-------------------------------------------------------------------|
E|-------------------------------------------------------------------|

e|------12-----------------------------------------------------------|
B|-15b-------15br15~~~~15-15-15-15p14-14-14p12---12-12-12p10---------|
G|-------------------------------------------------------------------|
D|-------------------------------------------------------------------|
A|-------------------------------------------------------------------|
E|-------------------------------------------------------------------|

e|-------------------7-----------------------------------------------|
B|--10-10-10p8---------7-10p7----------------------------------------|
G|---------------9b------------10-9-7-9br9-7-------------------------|
D|-------------------------------------------9-7---------------------|
A|-----------------------------------------------9-------------------|
E|-------------------------------------------------------------------|

[Solo 2]
e|-------------------------------------------------------------------|
B|-14-15h17p15p14h15p14--17p15p14h15p14------17b~~~~~----------------|
G|-------------------------------------------------------------------|
D|-------------------------------------------------------------------|
A|-------------------------------------------------------------------|
E|-------------------------------------------------------------------|

e|-14h17p14h17p14---17br~~~~~~~~-------------------------------------|
B|-------------------------------------------------------------------|
G|-------------------------------------------------------------------|
D|-------------------------------------------------------------------|
A|-------------------------------------------------------------------|
E|-------------------------------------------------------------------|

e|--7-------7-------7-------7h10p7-----------------------------------|
B|-----10b-----10b----10p7----------7h10p7---------------------------|
G|------------------------------------------9p7h9p7--7p6h7p6---------|
D|-------------------------------------------------------------------|
A|-------------------------------------------------------------------|
E|-------------------------------------------------------------------|

e|-------------------------------------------------------------------|
B|-------------------------------------------------------------------|
G|-------------------------------------------------------------------|
D|-7h9p7h9p7--5h7p5-4h5p4--------------------------------------------|
A|-------------------------5h7p5h7p5---------------------------------|
E|------------------------------------7------------------------------|

e|-------------------------------------14-15h17p15p14h5p14-----14-15-|
B|-14-15-17p15p14h15p14------14-15h17-----------------------17-------|
G|-----------------------16------------------------------------------|
D|-------------------------------------------------------------------|
A|-------------------------------------------------------------------|
E|-------------------------------------------------------------------|

e|-17br17br17b~~~~~~~------------------------------------------------|
B|-------------------------------------------------------------------|
G|-------------------------------------------------------------------|
D|-------------------------------------------------------------------|
A|-------------------------------------------------------------------|
E|-------------------------------------------------------------------|

************************************

| ~   Vibrato
| h   Hammer-on
| br  Bend release
| p   Pull-off
| b   Bend

************************************
Suggest correction
comments
print report bad tab
6 comments total. Showing first comments.
0 reply
supremacy5477 16 Oct 02, 2006 08:45 PM

awesome tab!

0 reply
M&M5192 10 Jan 21, 2007 12:45 PM

yeah pretty sweet...missed something in the chorus at the end actually... where it goes up actually.. but thats ok

0 reply
Kevin67 20 Aug 29, 2007 01:12 AM

the interlude before the solo sounds to me like it is tapped.
but really good tab. even the solo is great.

guest
You may want to rate the tab now too:
select rating
Wanna post a correction for this tab? Suggest correction