Oops, an error
Loading. Please wait.
We have an official The Prisoner tab made by UG professional guitarists. Check out the tab »
×
820 views 3 this week
no commentswrite comment
1 2 3 4 5
x 11
add to favorites
×
Save as Personal and add changes to this tab that will be seen only by you. Learn more ›
×
You can save this tab as Personal to edit and correct it or add notes. All changes will be seen only by you. Learn more »
launch autoscroll
font size
0
reset
how to read this tab
guitar tuner
backing track
0:00
0:00
edit
Autoscroll
slow
fast
+/-
esc
set tempo
stop
Author
Difficulty
                                 The Prisoner     
                              

                                 Iron Maiden


Instruments:
- G #1
- G #2
- G #3
- Voice Melody
- Chorus



Guitar #1:

Adrian Smith

          Intro                                                              
     S    W                   W                     S S S S S E.   H         
E||----|-------------------|-------------------||---------------------------|
B||----|-------------------|-------------------||---------------------------|
G||----|-------------------|-------------------||*--------------------------|
D||----|-------------------|-------------------||*--------------------------|
A||----|-------------------|-------------------||---9-9-9-7-9-L\------------|
E||----|-------------------|-------------------||---7-7-7-5-7-L\------------|


  S S S S E  S S H           S S S S E  E  H         
--------------------------|-------------------------|
--------------------------|-------------------------|
-----------------7--------|-------------------------|
-----------------7--------|-------------------------|
--9-9-9-7-9--x-x-5--------|--7-7-7-5-7--------------|
--7-7-7-5-7--x-x----------|--5-5-5-3-5--------------|


  S S S S E  S S E.  S E.  S    S S S S S E.   H         
-----------------------------|--------------------------|
-----------------------------|--------------------------|
-----------------------------|--------------------------|
-----------------------------|--------------------------|
--4-4-4-2-4--x-x-7-----2-----|--9-9-9-7-9-L\------------|
--2-2-2-0-2--x-x-5-----0-----|--7-7-7-5-7-L\------------|


  S S S S E  E  H           S S S S E  E  H         
-------------------------|-------------------------|
-------------------------|-------------------------|
-------------7--L--------|-------------------------|
-------------7--L--------|-------------------------|
--9-9-9-7-9--5--L--------|--7-7-7-5-7--------------|
--7-7-7-5-7--------------|--5-5-5-3-5--------------|


                                Riff A                                   
                                PM     PM PM PM PM PM PM                 
  S S S S E  E.  S Q.           S      S  S  S  S  S  S  E  S E  S S E   
---------------------------||-------------------------------------------|
---------------------------||-------------------------------------------|
--------------------------*||*------------------------------------------|
--------------------------*||*---------------------------4--4-2---------|
--4-4-4-2-4--5-----7-------||---2------2--2--2--2--2--2--2--2-0---------|
--2-2-2-0-2--3-----5-------||------------------------------------3-2-0--|


  PM PM PM PM PM                     PM PM PM PM PM PM PM                  
  S  S  S  S  S  S S S E.  E.  E     S  S  S  S  S  S  S  E  S E  S S S S  
----------------------------------|---------------------------------------|
----------------------------------|-------------------------------------3-|
----------------------------------|-------------------------------------2-|
-----------------4-4-4-7---6---2--|-----------------------4--4-2--------0-|
--2--2--2--2--2--2-2-2-5---4---0--|--2--2--2--2--2--2--2--2--2-0----------|
----------------------------------|-------------------------------3-2-0---|


                           Verso Riff 1                                   
                           PM           PM PM PM PM PM PM                 
  Q.     S S H             S            S  S  S  S  S  S  E  S E  S S E   
-----------------------||------------------------------------------------|
--L------L-5-L---------||------------------------------------------------|
--L------L-4-L--------*||------------------------------------------------|
--L------L-2-L--------*||---------------------------------4--4-2---------|
-----------------------||--2------------2--2--2--2--2--2--2--2-0---------|
-----------------------||-----------------------------------------3-2-0--|


  PM PM PM PM PM                     PM PM PM PM PM PM PM                  
  S  S  S  S  S  S S S E.  E.  E     S  S  S  S  S  S  S  E  S E  S S S S  
----------------------------------|---------------------------------------|
----------------------------------|-------------------------------------3-|
----------------------------------|-------------------------------------2-|
-----------------4-4-4-7---6---2--|-----------------------4--4-2--------0-|
--2--2--2--2--2--2-2-2-5---4---0--|--2--2--2--2--2--2--2--2--2-0----------|
----------------------------------|-------------------------------3-2-0---|


                         PM PM PM PM PM PM PM                 
  Q.     S S H           S  S  S  S  S  S  S  E  S E  S S E   
----------------------|--------------------------------------|
--L------L-5-L--------|--------------------------------------|
--L------L-4-L--------|--------------------------------------|
--L------L-2-L--------|-----------------------4--4-2---------|
----------------------|--2--2--2--2--2--2--2--2--2-0---------|
----------------------|-------------------------------3-2-0--|


  PM PM PM PM PM                     PM PM PM PM PM PM PM                  
  S  S  S  S  S  S S S E.  E.  E     S  S  S  S  S  S  S  E  S E  S S S S  
----------------------------------|---------------------------------------|
----------------------------------|-------------------------------------3-|
----------------------------------|-------------------------------------2-|
-----------------4-4-4-7---6---2--|-----------------------4--4-2--------0-|
--2--2--2--2--2--2-2-2-5---4---0--|--2--2--2--2--2--2--2--2--2-0----------|
----------------------------------|-------------------------------3-2-0---|


                         Verso Riff 2                                  
                                      PM PM    PM      PM PM    PM PM  
  Q.     S S H           E            S  S  E  S  E.   S  S  E  S  S   
----------------------|-----------------------------------------------|
--L------L-5-L--------|-----------------------------------------------|
--L------L-4-L--------|--5------------------5-----7~---------7--------|
--L------L-2-L--------|--5------------------5-----7~---------7--------|
----------------------|---------------0--0-----0-------0--0-----0--0--|
----------------------|-----------------------------------------------|


     PM PM    PM      PM PM               PM PM    PM      PM PM    PM PM  
  E  S  S  E  S  E.   S  S  S  E  S    E  S  S  E  S  E.   S  S  E  S  S   
------------------------------------|-------------------------------------|
------------------------------------|-------------------------------------|
--5--------5-----7~---------7p-5----|--5--------5-----7~---------7--------|
--5--------5-----7~---------7p-5----|--5--------5-----7~---------7--------|
-----0--0-----0-------0--0----------|-----0--0-----0-------0--0-----0--0--|
------------------------------------|-------------------------------------|


                                       Pre-Coro                           
     PM PM    PM      PM PM                                               
  E  S  S  E  S  E.   S  S  S  E  S    E        S S S S E.  S S S S S E   
------------------------------------|------------------------------------|
------------------------------------|--8--------8-8-8-8-6---6-6-6-5-6----|
--5--------5-----7~---------7p-5----|--7--------7-7-7-7-5---5-5-5-4-5----|
--5--------5-----7~---------7p-5----|------------------------------------|
-----0--0-----0-------0--0----------|------------------------------------|
------------------------------------|------------------------------------|


  E  S S S S E.  S S S S E  S    Q.     S S H           E.  E.  Q.        E  S  
------------------------------|----------------------|-----------------|-------|
--8--8-8-8-8-6---6-6-6-5-6--5-|--L------L-4-L--------|-----------------|-------|
--7--7-7-7-7-5---5-5-5-4-5--4-|--L------L-4-L--------|-----------------|-----9-|
----------------------------4-|--L------L-4-L--------|--2-------4------|--L--9-|
------------------------------|----------------------|--0---2---2------|--L--7-|
------------------------------|----------------------|------0----------|-------|


  Coro                                                            
  H.           E.  S    H.           E.  S    H.           E.  S  
---------------------|---------------------|---------------------|
---------------------|---------------------|---------------------|
--9------------L---x-|--4------------L---x-|--2------------L---x-|
--9------------L---x-|--4------------L---x-|--2------------L---x-|
--7------------L---x-|--2------------L---x-|--0------------L---x-|
---------------------|---------------------|---------------------|


  Q    E.  S Q.     S S    H.           E.  S    H.           E.  S  
------------------------|---------------------|---------------------|
------------------------|---------------------|---------------------|
--6----L---x-4------L-x-|--9------------L---x-|--4------------L---x-|
--6----L---x-4------L-x-|--9------------L---x-|--4------------L---x-|
--4----L---x-2------L-x-|--7------------L---x-|--2------------L---x-|
------------------------|---------------------|---------------------|


  H.           E.  S    Q    E.  S H         
---------------------|----------------------|
---------------------|----------------------|
--2------------L---x-|--6----L---x-7--------|
--2------------L---x-|--6----L---x-7--------|
--0------------L---x-|--4----L---x-5--------|
---------------------|----------------------|


  Riff A                                                                      
  PM     PM PM PM PM PM PM                   PM PM PM PM PM                   
  S      S  S  S  S  S  S  E  S E  S S E     S  S  S  S  S  S S S E.  E.  E   
------------------------------------------|----------------------------------|
------------------------------------------|----------------------------------|
------------------------------------------|----------------------------------|
---------------------------4--4-2---------|-----------------4-4-4-7---6---2--|
--2------2--2--2--2--2--2--2--2-0---------|--2--2--2--2--2--2-2-2-5---4---0--|
-----------------------------------3-2-0--|----------------------------------|


  PM PM PM PM PM PM PM                                         
  S  S  S  S  S  S  S  E  S E  S S S S    Q.     S S H         
---------------------------------------|----------------------|
-------------------------------------3-|--L------L-5-L--------|
-------------------------------------2-|--L------L-4-L--------|
-----------------------4--4-2--------0-|--L------L-2-L--------|
--2--2--2--2--2--2--2--2--2-0----------|----------------------|
-------------------------------3-2-0---|----------------------|


  Verso Riff 1                                   
  PM           PM PM PM PM PM PM                 
  S            S  S  S  S  S  S  E  S E  S S E   
------------------------------------------------|
------------------------------------------------|
------------------------------------------------|
---------------------------------4--4-2---------|
--2------------2--2--2--2--2--2--2--2-0---------|
-----------------------------------------3-2-0--|


  PM PM PM PM PM                     PM PM PM PM PM PM PM                  
  S  S  S  S  S  S S S E.  E.  E     S  S  S  S  S  S  S  E  S E  S S S S  
----------------------------------|---------------------------------------|
----------------------------------|-------------------------------------3-|
----------------------------------|-------------------------------------2-|
-----------------4-4-4-7---6---2--|-----------------------4--4-2--------0-|
--2--2--2--2--2--2-2-2-5---4---0--|--2--2--2--2--2--2--2--2--2-0----------|
----------------------------------|-------------------------------3-2-0---|


                         PM PM PM PM PM PM PM                 
  Q.     S S H           S  S  S  S  S  S  S  E  S E  S S E   
----------------------|--------------------------------------|
--L------L-5-L--------|--------------------------------------|
--L------L-4-L--------|--------------------------------------|
--L------L-2-L--------|-----------------------4--4-2---------|
----------------------|--2--2--2--2--2--2--2--2--2-0---------|
----------------------|-------------------------------3-2-0--|


  PM PM PM PM PM                     PM PM PM PM PM PM PM                  
  S  S  S  S  S  S S S E.  E.  E     S  S  S  S  S  S  S  E  S E  S S S S  
----------------------------------|---------------------------------------|
----------------------------------|-------------------------------------3-|
----------------------------------|-------------------------------------2-|
-----------------4-4-4-7---6---2--|-----------------------4--4-2--------0-|
--2--2--2--2--2--2-2-2-5---4---0--|--2--2--2--2--2--2--2--2--2-0----------|
----------------------------------|-------------------------------3-2-0---|


                         Verso Riff 2                                  
                                      PM PM    PM      PM PM    PM PM  
  Q.     S S H           E            S  S  E  S  E.   S  S  E  S  S   
----------------------|-----------------------------------------------|
--L------L-5-L--------|-----------------------------------------------|
--L------L-4-L--------|--5------------------5-----7~---------7--------|
--L------L-2-L--------|--5------------------5-----7~---------7--------|
----------------------|---------------0--0-----0-------0--0-----0--0--|
----------------------|-----------------------------------------------|


     PM PM    PM      PM PM               PM PM    PM      PM PM    PM PM  
  E  S  S  E  S  E.   S  S  S  E  S    E  S  S  E  S  E.   S  S  E  S  S   
------------------------------------|-------------------------------------|
------------------------------------|-------------------------------------|
--5--------5-----7~---------7p-5----|--5--------5-----7~---------7--------|
--5--------5-----7~---------7p-5----|--5--------5-----7~---------7--------|
-----0--0-----0-------0--0----------|-----0--0-----0-------0--0-----0--0--|
------------------------------------|-------------------------------------|


                                       Pre-Coro                           
     PM PM    PM      PM PM                                               
  E  S  S  E  S  E.   S  S  S  E  S    E        S S S S E.  S S S S S E   
------------------------------------|------------------------------------|
------------------------------------|--8--------8-8-8-8-6---6-6-6-5-6----|
--5--------5-----7~---------7p-5----|--7--------7-7-7-7-5---5-5-5-4-5----|
--5--------5-----7~---------7p-5----|------------------------------------|
-----0--0-----0-------0--0----------|------------------------------------|
------------------------------------|------------------------------------|


  E  S S S S E.  S S S S E  S    Q.     S S H           E.  E.  Q.        E  S  
------------------------------|----------------------|-----------------|-------|
--8--8-8-8-8-6---6-6-6-5-6--5-|--L------L-4-L--------|-----------------|-------|
--7--7-7-7-7-5---5-5-5-4-5--4-|--L------L-4-L--------|-----------------|-----9-|
----------------------------4-|--L------L-4-L--------|--2-------4------|--L--9-|
------------------------------|----------------------|--0---2---2------|--L--7-|
------------------------------|----------------------|------0----------|-------|


  Coro                                                            
  H.           E.  S    H.           E.  S    H.           E.  S  
---------------------|---------------------|---------------------|
---------------------|---------------------|---------------------|
--9------------L---x-|--4------------L---x-|--2------------L---x-|
--9------------L---x-|--4------------L---x-|--2------------L---x-|
--7------------L---x-|--2------------L---x-|--0------------L---x-|
---------------------|---------------------|---------------------|


  Q    E.  S Q.     S S    H.           E.  S    H.           E.  S  
------------------------|---------------------|---------------------|
------------------------|---------------------|---------------------|
--6----L---x-4------L-x-|--9------------L---x-|--4------------L---x-|
--6----L---x-4------L-x-|--9------------L---x-|--4------------L---x-|
--4----L---x-2------L-x-|--7------------L---x-|--2------------L---x-|
------------------------|---------------------|---------------------|


  H.           E.  S    Q    E.  S Q.     S S    H.           E.  S  
---------------------|------------------------|---------------------|
---------------------|------------------------|---------------------|
--2------------L---x-|--6----L---x-4------L-x-|--9------------L---x-|
--2------------L---x-|--6----L---x-4------L-x-|--9------------L---x-|
--0------------L---x-|--4----L---x-2------L-x-|--7------------L---x-|
---------------------|------------------------|---------------------|


  H.           E.  S    H.           E.  S    Q    E.  S Q.     S S  
---------------------|---------------------|------------------------|
---------------------|---------------------|------------------------|
--4------------L---x-|--2------------L---x-|--6----L---x-4------L-x-|
--4------------L---x-|--2------------L---x-|--6----L---x-4------L-x-|
--2------------L---x-|--0------------L---x-|--4----L---x-2------L-x-|
---------------------|---------------------|------------------------|


  H.           E.  S    H.           E.  S    H.           E.  S  
---------------------|---------------------|---------------------|
---------------------|---------------------|---------------------|
--9------------L---x-|--4------------L---x-|--2------------L---x-|
--9------------L---x-|--4------------L---x-|--2------------L---x-|
--7------------L---x-|--2------------L---x-|--0------------L---x-|
---------------------|---------------------|---------------------|


                         Interludio A                                          
  Q    E.  S H           S             S  S S  S  S S  S  S S  S  S S  S  S S  
----------------------|-------------------------------------------------------|
----------------------|-------------------------------------------------------|
--6----L---x-7--------|---------------11p-7---11p-7---11p-7---11p-7---11p-7---|
--6----L---x-7--------|--9------------------9-------9-------9-------9-------9-|
--4----L---x-5--------|-------------------------------------------------------|
----------------------|-------------------------------------------------------|


   S  S S  S  S S  S  S S  S  S S  E  E   
-----------------------------------------|
-----------------------------------------|
--11p-7---11p-7---11p-7---11p-7---11--7--|
--------9-------9-------9-------9--------|
-----------------------------------------|
-----------------------------------------|


                                                        |--3--|    |--3--|     
  S S  S S S  S S S  S S S  S S S  E     S S  S S E  E  S  S  S E  S  S  S E   
--------------------------------------|---------------------------------------|
--------------------------------------|---------------------------------------|
----9p-6---9p-6---9p-6---9p-6---9p-6--|----6p-3---6--3--4h-7p-4----6h-9p-6----|
--7------7------7------7------7-------|--4------4---------------5----------7--|
--------------------------------------|---------------------------------------|
--------------------------------------|---------------------------------------|


  S  S  S S  S  S S  S  S S  S  S S  S  S S  
--------------------------------------------|
--------------------------------------------|
----11p-7---11p-7---11p-7---11p-7---11p-7---|
--9-------9-------9-------9-------9-------9-|
--------------------------------------------|
--------------------------------------------|


   S  S S  S  S S  S  S S  S  S S  E  E   
-----------------------------------------|
-----------------------------------------|
--11p-7---11p-7---11p-7---11p-7---11--7--|
--------9-------9-------9-------9--------|
-----------------------------------------|
-----------------------------------------|


  S S  S S S  S S S  S S S  S S S  E   
--------------------------------------|
--------------------------------------|
----9p-6---9p-6---9p-6---9p-6---9p-6--|
--7------7------7------7------7-------|
--------------------------------------|
--------------------------------------|


               |--3--|    |--3-|            
  S S  S S S S S  S  S E  S S  S  S  S  E   
-------------------------------------------|
-------------------------------------------|
----6p-3---3-6-4h-7p-4------6h-9p-6h-9p-6--|
--4------4-------------5--7----------------|
-------------------------------------------|
-------------------------------------------|


  Interludio B                                          
  S             S  S S  S  S S  S  S S  S  S S  S  S S  
-------------------------------------------------------|
-------------------------------------------------------|
---------------11p-7---11p-7---12p-7---11p-7---12p-7---|
--9------------------9-------9-------9-------9-------9-|
-------------------------------------------------------|
-------------------------------------------------------|


   S  S S  S  S S  S  S S S  S S  E  E     S S  S S S  S S S  S S S  S S S  E   
----------------------------------------|--------------------------------------|
----------------------------------------|--------------------------------------|
--11p-7---12p-7---11p-7---9p-7---11--7--|----9p-6---7p-6---9p-6---7p-6---9p-6--|
--------9-------9-------9------9--------|--7------7------7------7------7-------|
----------------------------------------|--------------------------------------|
----------------------------------------|--------------------------------------|


                 |--3--|    |--3--|     
  S S  S S E  E  S  S  S E  S  S  S E   
---------------------------------------|
---------------------------------------|
----6p-3---6--3--4h-7p-4----6h-9p-6----|
--4------4---------------5----------7--|
---------------------------------------|
---------------------------------------|


  S  S  S S  S  S S  S  S S  S  S S S  S S  
-------------------------------------------|
-------------------------------------------|
----11p-7---11p-7---12p-7---11p-7---9p-7---|
--9-------9-------9-------9-------9------9-|
-------------------------------------------|
-------------------------------------------|


   S  S S  S  S S  S  S S S  S S  E  E     S S  S S S  S S S  S S S  S S S  E   
----------------------------------------|--------------------------------------|
----------------------------------------|--------------------------------------|
--11p-7---12p-7---11p-7---9p-7---11--7--|----9p-6---7p-6---9p-6---7p-6---9p-6--|
--------9-------9-------9------9--------|--7------7------7------7------7-------|
----------------------------------------|--------------------------------------|
----------------------------------------|--------------------------------------|


                 |--3--|     |--3--|      
  S S  S S E  E  S  S  S S S S  S  S S S  
-----------------------------------------|
-----------------------------------------|
----6p-3---6--3--2h-4p-2---------------2-|
--4------4---------------4-2-2h-4p-2-4---|
-----------------------------------------|
-----------------------------------------|


  Solo 1 Adrian Smith                           
                          SH                    
  Q                   S   E    S   Q.      S S  
-----------------------------------------------|
-----------------------------------------------|
--4~------------------L-<>9br--7-----------7-9-|
---------------------------------7g9~----------|
-----------------------------------------------|
-----------------------------------------------|


                          |--3--|  
  E   E  S E   Q.       S S  S  S  
------7--7-7--------------7-------|
--7---7--7-7--10~-------L---10p-7-|
--9b------------------------------|
----------------------------------|
----------------------------------|
----------------------------------|


       |--3--|      |-3-|  |--3--| |--3-|   |--3-| |-3-|  
   E   S  S  S  E   S S S  S  S  S S  S S   S  S S S S S  
-------7------------7-7-7-10p-7----7---------------------|
--10b----10p-7-10b--------------10---10-7h-10p-7---7-----|
-------------------------------------------------9---9-7-|
---------------------------------------------------------|
---------------------------------------------------------|
---------------------------------------------------------|


    SH    SH    SH                         
                       3           3   3   
    E     E     E    S S  Q.     S S   S   
------------------------------------------|
-----------------------------------0h-12h-|
--<>9b--<>9b--<>9br--7--------------------|
-----------------------9~-L---------------|
------------------------------------------|
------------------------------------------|


      |--3--|       |--3--|   |--3--|   |--3--|   |--3--|   |--3--|   
   E  S S   S   E   S S   S   S S   S   S S   S   S S   S   S S   S   
---------------------------------------------------------------------|
--15--L-0h-12h-15---L-0h-12h-15-0h-12h-14-0h-12h-15-0h-12h-14-0h-12h-|
---------------------------------------------------------------------|
---------------------------------------------------------------------|
---------------------------------------------------------------------|
---------------------------------------------------------------------|


   |--3--|   |--3--|   |---3--|                       
   S S   S   S S   S   S   S  S  S  S   Q.      S  S  
-----------------------------------------------14-14-|
--15-0h-12h-14-0h-12h-15b--L--L--L-15~--L------15-15-|
-----------------------------------------------------|
-----------------------------------------------------|
-----------------------------------------------------|
-----------------------------------------------------|


   S  S  S  S  S  S  S  S  S  S  S  S  S  S  S  S  
--14-12-12-12-12-10-10-10-10----------------------|
--15-14-14-14-14-12-12-12-12-14-14-14-14-12-12-10-|
-----------------------------14-14-14-14-12-12-11-|
--------------------------------------------------|
--------------------------------------------------|
--------------------------------------------------|


    SH    SH                               
    E     E    T  T  S S S S S S S S S E   
------------------------------------------|
------------------------------------------|
--<>9b--<>9b--10p-9p-7---7----------------|
-----------------------9---9-7------------|
-------------------------------7-9-8-7-5--|
------------------------------------------|


  Solo 2 Dave Murray                              
                        PM PM PM        PM PM     
  E                  E  S  S  S  E.  E  S  S  E   
-------------------------------------------------|
-------------------------------------------------|
-------------------------------------------------|
--4------------------4-----------4---4--------4--|
--2------------------2--2--2--2--2---2--2--2--2--|
-------------------------------------------------|


  PM PM PM PM PM PM PM                     PM PM PM        PM PM     
  S  S  S  S  S  S  S  S H           E  E  S  S  S  E.  E  S  S  E   
----------------------------------|---------------------------------|
----------------------------------|---------------------------------|
-----------------------7-L--------|---------------------------------|
-----------------------7-L--------|---------------------------------|
--2--2--2--2--2--2--2--5-L--------|--7--7-----------7---7--------7--|
----------------------------------|--5--5--5--5--5--5---5--5--5--5--|


  PM PM PM PM PM PM PM PM                    PM PM PM        PM PM     
  S  S  S  S  S  S  S  S  Q    Q       E  E  S  S  S  E.  E  S  S  E   
------------------------------------|---------------------------------|
------------------------------------|---------------------------------|
------------------------------------|---------------------------------|
--------------------------2---------|--4--4-----------4---4--------4--|
--------------------------0----2----|--2--2--2--2--2--2---2--2--2--2--|
--2--2--2--2--2--2--2--2-------0----|---------------------------------|


  PM PM PM PM PM PM PM                     PM PM PM        PM PM     
  S  S  S  S  S  S  S  S H           E  E  S  S  S  E.  E  S  S  E   
----------------------------------|---------------------------------|
----------------------------------|---------------------------------|
-----------------------7-L--------|---------------------------------|
-----------------------7-L--------|---------------------------------|
--2--2--2--2--2--2--2--5-L--------|--7--7-----------7---7--------7--|
----------------------------------|--5--5--5--5--5--5---5--5--5--5--|


                                        Coro                
  PM PM PM PM PM PM PM PM                                   
  S  S  S  S  S  S  S  S  Q    E.  S    H.           E.  S  
-------------------------------------|---------------------|
-------------------------------------|---------------------|
-----------------------------------9-|--L------------L---x-|
-----------------------------------9-|--L------------L---x-|
--------------------------5----7---7-|--L------------L---x-|
--2--2--2--2--2--2--2--2--3----5-----|---------------------|


  H.           E.  S    H.           E.  S    Q    E.  S Q.     S S  
---------------------|---------------------|------------------------|
---------------------|---------------------|------------------------|
--4------------L---x-|--2------------L---x-|--6----L---x-4------L-x-|
--4------------L---x-|--2------------L---x-|--6----L---x-4------L-x-|
--2------------L---x-|--0------------L---x-|--4----L---x-2------L-x-|
---------------------|---------------------|------------------------|


  H.           E.  S    H.           E.  S    H.           E.  S  
---------------------|---------------------|---------------------|
---------------------|---------------------|---------------------|
--9------------L---x-|--4------------L---x-|--2------------L---x-|
--9------------L---x-|--4------------L---x-|--2------------L---x-|
--7------------L---x-|--2------------L---x-|--0------------L---x-|
---------------------|---------------------|---------------------|


  Q    E.  S Q.     S S    H.           E.  S    H.           E.  S  
------------------------|---------------------|---------------------|
------------------------|---------------------|---------------------|
--6----L---x-4------L-x-|--9------------L---x-|--4------------L---x-|
--6----L---x-4------L-x-|--9------------L---x-|--4------------L---x-|
--4----L---x-2------L-x-|--7------------L---x-|--2------------L---x-|
------------------------|---------------------|---------------------|


  H.           E.  S    Q    E.  S Q.     S S    H.           E.  S  
---------------------|------------------------|---------------------|
---------------------|------------------------|---------------------|
--2------------L---x-|--6----L---x-4------L-x-|--9------------L---x-|
--2------------L---x-|--6----L---x-4------L-x-|--9------------L---x-|
--0------------L---x-|--4----L---x-2------L-x-|--7------------L---x-|
---------------------|------------------------|---------------------|


  H.           E.  S    H.           E.  S    Q    E.  S Q.     S S  
---------------------|---------------------|------------------------|
---------------------|---------------------|------------------------|
--4------------L---x-|--2------------L---x-|--6----L---x-4------L-x-|
--4------------L---x-|--2------------L---x-|--6----L---x-4------L-x-|
--2------------L---x-|--0------------L---x-|--4----L---x-2------L-x-|
---------------------|---------------------|------------------------|


  Outro                                                           
  H.           E.  S    H.           E.  S    H.           E.  S  
---------------------|---------------------|---------------------|
---------------------|---------------------|---------------------|
--9------------L---x-|--4------------L---x-|--2------------L---x-|
--9------------L---x-|--4------------L---x-|--2------------L---x-|
--7------------L---x-|--2------------L---x-|--0------------L---x-|
---------------------|---------------------|---------------------|


  Q    E.  S Q.     S S    H.           E.  S    H.           E.  S  
------------------------|---------------------|---------------------|
------------------------|---------------------|---------------------|
--6----L---x-4------L-x-|--9------------L---x-|--4------------L---x-|
--6----L---x-4------L-x-|--9------------L---x-|--4------------L---x-|
--4----L---x-2------L-x-|--7------------L---x-|--2------------L---x-|
------------------------|---------------------|---------------------|


  H.           E.  S    Q    E.  S Q.     S S    W                 
---------------------|------------------------|-------------------|
---------------------|------------------------|-------------------|
--2------------L---x-|--6----L---x-4------L-x-|--9----------------|
--2------------L---x-|--6----L---x-4------L-x-|--9----------------|
--0------------L---x-|--4----L---x-2------L-x-|--7----------------|
---------------------|------------------------|-------------------|


  W                   W                  
-------------------|-------------------||
-------------------|-------------------||
--L----------------|--L----------------||
--L----------------|--L----------------||
--L----------------|--L----------------||
-------------------|-------------------||




Guitar #2:
                                 
Dave Murray

          Intro                                                              
     S    W                   W                     S S S S S E.   H         
E||----|-------------------|-------------------||---------------------------|
B||----|-------------------|-------------------||---------------------------|
G||----|-------------------|-------------------||*--------------------------|
D||----|-------------------|-------------------||*--------------------------|
A||----|-------------------|-------------------||---9-9-9-7-9---------------|
E||----|-------------------|-------------------||---7-7-7-5-7-L\------------|


  S S S S E  S S H           S S S S E  E  H         
--------------------------|-------------------------|
--------------------------|-------------------------|
-----------------7--------|-------------------------|
-----------------7--------|-------------------------|
--9-9-9-7-9--x-x-5--------|--7-7-7-5-7--------------|
--7-7-7-5-7--x-x----------|--5-5-5-3-5--------------|


  S S S S E  S S E.  S E.  S    S S S S S E.   H         
-----------------------------|--------------------------|
-----------------------------|--------------------------|
-----------------------------|--------------------------|
-----------------------------|--------------------------|
--4-4-4-2-4--x-x-7-----2-----|--9-9-9-7-9---------------|
--2-2-2-0-2--x-x-5-----0-----|--7-7-7-5-7-L\------------|


  S S S S E  E  H           S S S S E  E  H         
-------------------------|-------------------------|
-------------------------|-------------------------|
-------------7--L--------|-------------------------|
-------------7--L--------|-------------------------|
--9-9-9-7-9--5--L--------|--7-7-7-5-7--------------|
--7-7-7-5-7--------------|--5-5-5-3-5--------------|


                                Riff A                                   
                                PM     PM PM PM PM PM PM                 
  S S S S E  E.  S Q.           S      S  S  S  S  S  S  E  S E  S S E   
---------------------------||-------------------------------------------|
---------------------------||-------------------------------------------|
--------------------------*||*------------------------------------------|
--------------------------*||*---------------------------4--4-2---------|
--4-4-4-2-4--5-----7-------||---2------2--2--2--2--2--2--2--2-0---------|
--2-2-2-0-2--3-----5-------||------------------------------------3-2-0--|


  PM PM PM PM PM PM PM PM               PM PM PM PM PM PM PM                  
  S  S  S  S  S  S  S  S  E.  E.  E     S  S  S  S  S  S  S  E  S E  S S S S  
-------------------------------------|---------------------------------------|
-------------------------------------|---------------------------------------|
-------------------------------------|-------------------------------------7-|
--------------------------7---6---2--|-----------------------4--4-2--------7-|
--2--2--2--2--2--2--2--2--5---4---0--|--2--2--2--2--2--2--2--2--2-0--------5-|
-------------------------------------|-------------------------------3-2-0---|


                           Verso Riff 1                                   
                           PM           PM PM PM PM PM PM                 
  Q.     S S H             S            S  S  S  S  S  S  E  S E  S S E   
-----------------------||------------------------------------------------|
-----------------------||------------------------------------------------|
--L------L-9-L--------*||------------------------------------------------|
--L------L-9-L--------*||---------------------------------4--4-2---------|
--L------L-7-L---------||--2------------2--2--2--2--2--2--2--2-0---------|
-----------------------||-----------------------------------------3-2-0--|


  PM PM PM PM PM PM PM PM               PM PM PM PM PM PM PM                  
  S  S  S  S  S  S  S  S  E.  E.  E     S  S  S  S  S  S  S  E  S E  S S S S  
-------------------------------------|---------------------------------------|
-------------------------------------|---------------------------------------|
-------------------------------------|-------------------------------------7-|
--------------------------7---6---2--|-----------------------4--4-2--------7-|
--2--2--2--2--2--2--2--2--5---4---0--|--2--2--2--2--2--2--2--2--2-0--------5-|
-------------------------------------|-------------------------------3-2-0---|


                         PM PM PM PM PM PM PM                 
  Q.     S S H           S  S  S  S  S  S  S  E  S E  S S E   
----------------------|--------------------------------------|
----------------------|--------------------------------------|
--L------L-9-L--------|--------------------------------------|
--L------L-9-L--------|-----------------------4--4-2---------|
--L------L-7-L--------|--2--2--2--2--2--2--2--2--2-0---------|
----------------------|-------------------------------3-2-0--|


  PM PM PM PM PM PM PM PM               PM PM PM PM PM PM PM                  
  S  S  S  S  S  S  S  S  E.  E.  E     S  S  S  S  S  S  S  E  S E  S S S S  
-------------------------------------|---------------------------------------|
-------------------------------------|---------------------------------------|
-------------------------------------|-------------------------------------7-|
--------------------------7---6---2--|-----------------------4--4-2--------7-|
--2--2--2--2--2--2--2--2--5---4---0--|--2--2--2--2--2--2--2--2--2-0--------5-|
-------------------------------------|-------------------------------3-2-0---|


                         Verso Riff 2                                         
                                      PM PM PM PM PM    PM PM PM PM PM PM PM  
  Q.     S S H           E            S  S  S  S  S  E  S  S  S  S  S  S  S   
----------------------|------------------------------------------------------|
----------------------|------------------------------------------------------|
--L------L-9-L--------|------------------------------------------------------|
--L------L-9-L--------|--2---------------------------4-----------------------|
--L------L-7-L--------|--0------------0--0--0--0--0--0--0--0--0--0--0--0--0--|
----------------------|------------------------------------------------------|


     PM PM PM PM PM    PM PM PM PM PM PM PM  
  E  S  S  S  S  S  E  S  S  S  S  S  S  S   
--------------------------------------------|
--------------------------------------------|
--------------------------------------------|
--2-----------------4-----------------------|
--0--0--0--0--0--0--0--0--0--0--0--0--0--0--|
--------------------------------------------|


     PM PM PM PM PM    PM PM PM PM PM PM PM  
  E  S  S  S  S  S  E  S  S  S  S  S  S  S   
--------------------------------------------|
--------------------------------------------|
--------------------------------------------|
--2-----------------4-----------------------|
--0--0--0--0--0--0--0--0--0--0--0--0--0--0--|
--------------------------------------------|


                                               Pre-Coro              
     PM PM PM PM PM    PM PM PM PM PM PM PM                          
  E  S  S  S  S  S  E  S  S  S  S  S  S  S     Q.       Q.     Q     
--------------------------------------------|-----------------------|
--------------------------------------------|-----------------------|
--------------------------------------------|--7--------5------L----|
--2-----------------4-----------------------|--7--------5------L----|
--0--0--0--0--0--0--0--0--0--0--0--0--0--0--|--5--------3------L----|
--------------------------------------------|-----------------------|


  Q.     H        S S    Q.     S S H           E.  E.  Q.        E  S  
----------------------|----------------------|-----------------|-------|
--------------------5-|--L------L-4-L--------|-----------------|-------|
--7------5--------L-4-|--L------L-4-L--------|-----------------|-------|
--7------5--------L-4-|--L------L-4-L--------|--2-------4------|--L----|
--5------3--------L---|----------------------|--0---2---2------|--L--7-|
----------------------|----------------------|------0----------|-------|


  Coro                                                                     
  Q    E  E  E.  S Q       Q    E  E  E.  S Q       Q    E  E  E.  S Q     
-------------0----------|-------------0----------|-------------0----------|
-----------------0-L----|-----------------0-L----|-----------------0-L----|
----------9-------------|----------4-------------|----------2-------------|
-------9----------------|-------4----------------|-------2----------------|
--7---------------------|--2---------------------|--0---------------------|
------------------------|------------------------|------------------------|


  H        H           Q    E  E  E.  S Q       Q    E  E  E.  S Q     
--------------------|-------------0----------|-------------0----------|
--------------------|-----------------0-L----|-----------------0-L----|
--6--------4--------|----------9-------------|----------4-------------|
--6--------4--------|-------9----------------|-------4----------------|
--4--------2--------|--7---------------------|--2---------------------|
--------------------|------------------------|------------------------|


  Q    E  E  E.  S Q       H        H         
-------------0----------|--------------------|
-----------------0-L----|--------------------|
----------2-------------|--6--------7--------|
-------2----------------|--6--------7--------|
--0---------------------|--4--------5--------|
------------------------|--------------------|


  Riff A                                   
  PM     PM PM PM PM PM PM                 
  S      S  S  S  S  S  S  E  S E  S S E   
------------------------------------------|
------------------------------------------|
------------------------------------------|
---------------------------4--4-2---------|
--2------2--2--2--2--2--2--2--2-0---------|
-----------------------------------3-2-0--|


  PM PM PM PM PM PM PM PM               PM PM PM PM PM PM PM                  
  S  S  S  S  S  S  S  S  E.  E.  E     S  S  S  S  S  S  S  E  S E  S S S S  
-------------------------------------|---------------------------------------|
-------------------------------------|---------------------------------------|
-------------------------------------|-------------------------------------7-|
--------------------------7---6---2--|-----------------------4--4-2--------7-|
--2--2--2--2--2--2--2--2--5---4---0--|--2--2--2--2--2--2--2--2--2-0--------5-|
-------------------------------------|-------------------------------3-2-0---|


                         Verso Riff 1                                   
                         PM           PM PM PM PM PM PM                 
  Q.     S S H           S            S  S  S  S  S  S  E  S E  S S E   
----------------------|------------------------------------------------|
----------------------|------------------------------------------------|
--L------L-9-L--------|------------------------------------------------|
--L------L-9-L--------|---------------------------------4--4-2---------|
--L------L-7-L--------|--2------------2--2--2--2--2--2--2--2-0---------|
----------------------|-----------------------------------------3-2-0--|


  PM PM PM PM PM PM PM PM               PM PM PM PM PM PM PM                  
  S  S  S  S  S  S  S  S  E.  E.  E     S  S  S  S  S  S  S  E  S E  S S S S  
-------------------------------------|---------------------------------------|
-------------------------------------|---------------------------------------|
-------------------------------------|-------------------------------------7-|
--------------------------7---6---2--|-----------------------4--4-2--------7-|
--2--2--2--2--2--2--2--2--5---4---0--|--2--2--2--2--2--2--2--2--2-0--------5-|
-------------------------------------|-------------------------------3-2-0---|


                         PM PM PM PM PM PM PM                 
  Q.     S S H           S  S  S  S  S  S  S  E  S E  S S E   
----------------------|--------------------------------------|
----------------------|--------------------------------------|
--L------L-9-L--------|--------------------------------------|
--L------L-9-L--------|-----------------------4--4-2---------|
--L------L-7-L--------|--2--2--2--2--2--2--2--2--2-0---------|
----------------------|-------------------------------3-2-0--|


  PM PM PM PM PM PM PM PM               PM PM PM PM PM PM PM                  
  S  S  S  S  S  S  S  S  E.  E.  E     S  S  S  S  S  S  S  E  S E  S S S S  
-------------------------------------|---------------------------------------|
-------------------------------------|---------------------------------------|
-------------------------------------|-------------------------------------7-|
--------------------------7---6---2--|-----------------------4--4-2--------7-|
--2--2--2--2--2--2--2--2--5---4---0--|--2--2--2--2--2--2--2--2--2-0--------5-|
-------------------------------------|-------------------------------3-2-0---|


                         Verso Riff 2                                         
                                      PM PM PM PM PM    PM PM PM PM PM PM PM  
  Q.     S S H           E            S  S  S  S  S  E  S  S  S  S  S  S  S   
----------------------|------------------------------------------------------|
----------------------|------------------------------------------------------|
--L------L-9-L--------|------------------------------------------------------|
--L------L-9-L--------|--2---------------------------4-----------------------|
--L------L-7-L--------|--0------------0--0--0--0--0--0--0--0--0--0--0--0--0--|
----------------------|------------------------------------------------------|


     PM PM PM PM PM    PM PM PM PM PM PM PM  
  E  S  S  S  S  S  E  S  S  S  S  S  S  S   
--------------------------------------------|
--------------------------------------------|
--------------------------------------------|
--2-----------------4-----------------------|
--0--0--0--0--0--0--0--0--0--0--0--0--0--0--|
--------------------------------------------|


     PM PM PM PM PM    PM PM PM PM PM PM PM  
  E  S  S  S  S  S  E  S  S  S  S  S  S  S   
--------------------------------------------|
--------------------------------------------|
--------------------------------------------|
--2-----------------4-----------------------|
--0--0--0--0--0--0--0--0--0--0--0--0--0--0--|
--------------------------------------------|


                                               Pre-Coro              
     PM PM PM PM PM    PM PM PM PM PM PM PM                          
  E  S  S  S  S  S  E  S  S  S  S  S  S  S     Q.       Q.     Q     
--------------------------------------------|-----------------------|
--------------------------------------------|-----------------------|
--------------------------------------------|--7--------5------L----|
--2-----------------4-----------------------|--7--------5------L----|
--0--0--0--0--0--0--0--0--0--0--0--0--0--0--|--5--------3------L----|
--------------------------------------------|-----------------------|


  Q.     H        S S    Q.     S S H           E.  E.  Q.        E  S  
----------------------|----------------------|-----------------|-------|
--------------------5-|--L------L-4-L--------|-----------------|-------|
--7------5--------L-4-|--L------L-4-L--------|-----------------|-------|
--7------5--------L-4-|--L------L-4-L--------|--2-------4------|--L----|
--5------3--------L---|----------------------|--0---2---2------|--L--7-|
----------------------|----------------------|------0----------|-------|


  Coro                                                                     
  Q    E  E  E.  S Q       Q    E  E  E.  S Q       Q    E  E  E.  S Q     
-------------0----------|-------------0----------|-------------0----------|
-----------------0-L----|-----------------0-L----|-----------------0-L----|
----------9-------------|----------4-------------|----------2-------------|
-------9----------------|-------4----------------|-------2----------------|
--7---------------------|--2---------------------|--0---------------------|
------------------------|------------------------|------------------------|


  H        H           Q    E  E  E.  S Q       Q    E  E  E.  S Q     
--------------------|-------------0----------|-------------0----------|
--------------------|-----------------0-L----|-----------------0-L----|
--6--------4--------|----------9-------------|----------4-------------|
--6--------4--------|-------9----------------|-------4----------------|
--4--------2--------|--7---------------------|--2---------------------|
--------------------|------------------------|------------------------|


  Q    E  E  E.  S Q       H        H           Q    E  E  E.  S Q     
-------------0----------|--------------------|-------------0----------|
-----------------0-L----|--------------------|-----------------0-L----|
----------2-------------|--6--------4--------|----------9-------------|
-------2----------------|--6--------4--------|-------9----------------|
--0---------------------|--4--------2--------|--7---------------------|
------------------------|--------------------|------------------------|


  Q    E  E  E.  S Q       Q    E  E  E.  S Q       H        H         
-------------0----------|-------------0----------|--------------------|
-----------------0-L----|-----------------0-L----|--------------------|
----------4-------------|----------2-------------|--6--------4--------|
-------4----------------|-------2----------------|--6--------4--------|
--2---------------------|--0---------------------|--4--------2--------|
------------------------|------------------------|--------------------|


  Q    E  E  E.  S Q       Q    E  E  E.  S Q       Q    E  E  E.  S Q     
-------------0----------|-------------0----------|-------------0----------|
-----------------0-L----|-----------------0-L----|-----------------0-L----|
----------9-------------|----------4-------------|----------2-------------|
-------9----------------|-------4----------------|-------2----------------|
--7---------------------|--2---------------------|--0---------------------|
------------------------|------------------------|------------------------|


                       Interludio A                        
  H        H           S            S S S S E.   H         
--------------------|-------------------------------------|
--------------------|-------------------------------------|
--6--------7--------|-------------------------------------|
--6--------7--------|-------------------------------------|
--4--------5--------|--9------------9-9-7-9---------------|
--------------------|--7------------7-7-5-7-L\------------|


  S S S S E  S S H           S S S S E  E  H         
--------------------------|-------------------------|
--------------------------|-------------------------|
-----------------7--------|-------------------------|
-----------------7--------|-------------------------|
--9-9-9-7-9--x-x-5--------|--7-7-7-5-7--------------|
--7-7-7-5-7--x-x----------|--5-5-5-3-5--------------|


  S S S S E  S S E.  S E.  S    S S S S S E.   H         
-----------------------------|--------------------------|
-----------------------------|--------------------------|
-----------------------------|--------------------------|
-----------------------------|--------------------------|
--4-4-4-2-4--x-x-7-----2-----|--9-9-9-7-9---------------|
--2-2-2-0-2--x-x-5-----0-----|--7-7-7-5-7-L\------------|


  S S S S E  E  H           S S S S E  E  H           S S S S E  E.  S Q.      
-------------------------|-------------------------|--------------------------|
-------------------------|-------------------------|--------------------------|
-------------7--L--------|-------------------------|--------------------------|
-------------7--L--------|-------------------------|--------------------------|
--9-9-9-7-9--5--L--------|--7-7-7-5-7--------------|--4-4-4-2-4--5-----7------|
--7-7-7-5-7--------------|--5-5-5-3-5--------------|--2-2-2-0-2--3-----5------|


  Interludio B                                                                 
                  PM PM PM        PM PM       PM PM PM PM PM PM PM             
  E            E  S  S  S  E.  E  S  S  E     S  S  S  S  S  S  S  S H         
-------------------------------------------|----------------------------------|
-------------------------------------------|----------------------------------|
-------------------------------------------|-----------------------7-L--------|
--4------------4-----------4---4--------4--|-----------------------7-L--------|
--2------------2--2--2--2--2---2--2--2--2--|--2--2--2--2--2--2--2--5-L--------|
-------------------------------------------|----------------------------------|


        PM PM PM        PM PM       PM PM PM PM PM PM PM PM            
  E  E  S  S  S  E.  E  S  S  E     S  S  S  S  S  S  S  S  Q    Q     
---------------------------------|------------------------------------|
---------------------------------|------------------------------------|
---------------------------------|------------------------------------|
---------------------------------|--------------------------2---------|
--7--7-----------7---7--------7--|--------------------------0----2----|
--5--5--5--5--5--5---5--5--5--5--|--2--2--2--2--2--2--2--2-------0----|


        PM PM PM        PM PM       PM PM PM PM PM PM PM             
  E  E  S  S  S  E.  E  S  S  E     S  S  S  S  S  S  S  S H         
---------------------------------|----------------------------------|
---------------------------------|----------------------------------|
---------------------------------|-----------------------7-L--------|
--4--4-----------4---4--------4--|-----------------------7-L--------|
--2--2--2--2--2--2---2--2--2--2--|--2--2--2--2--2--2--2--5-L--------|
---------------------------------|----------------------------------|


        PM PM PM        PM PM       PM PM PM PM PM PM PM PM            
  E  E  S  S  S  E.  E  S  S  E     S  S  S  S  S  S  S  S  Q    Q     
---------------------------------|------------------------------------|
---------------------------------|------------------------------------|
---------------------------------|------------------------------------|
---------------------------------|------------------------------------|
--7--7-----------7---7--------7--|--------------------------5----7----|
--5--5--5--5--5--5---5--5--5--5--|--2--2--2--2--2--2--2--2--3----5----|


  Solo 1 Adrian Smith                              
                         PM PM PM        PM PM     
  E                   E  S  S  S  E.  E  S  S  E   
--------------------------------------------------|
--------------------------------------------------|
--------------------------------------------------|
--4-------------------4-----------4---4--------4--|
--2-------------------2--2--2--2--2---2--2--2--2--|
--------------------------------------------------|


  PM PM PM PM PM PM PM                     PM PM PM        PM PM     
  S  S  S  S  S  S  S  S H           E  E  S  S  S  E.  E  S  S  E   
----------------------------------|---------------------------------|
----------------------------------|---------------------------------|
-----------------------7-L--------|---------------------------------|
-----------------------7-L--------|---------------------------------|
--2--2--2--2--2--2--2--5-L--------|--7--7-----------7---7--------7--|
----------------------------------|--5--5--5--5--5--5---5--5--5--5--|


  PM PM PM PM PM PM PM PM                    PM PM PM        PM PM     
  S  S  S  S  S  S  S  S  Q    Q       E  E  S  S  S  E.  E  S  S  E   
------------------------------------|---------------------------------|
------------------------------------|---------------------------------|
------------------------------------|---------------------------------|
--------------------------2---------|--4--4-----------4---4--------4--|
--------------------------0----2----|--2--2--2--2--2--2---2--2--2--2--|
--2--2--2--2--2--2--2--2-------0----|---------------------------------|


  PM PM PM PM PM PM PM                     PM PM PM        PM PM     
  S  S  S  S  S  S  S  S H           E  E  S  S  S  E.  E  S  S  E   
----------------------------------|---------------------------------|
----------------------------------|---------------------------------|
-----------------------7-L--------|---------------------------------|
-----------------------7-L--------|---------------------------------|
--2--2--2--2--2--2--2--5-L--------|--7--7-----------7---7--------7--|
----------------------------------|--5--5--5--5--5--5---5--5--5--5--|


  PM PM PM PM PM PM PM PM            
  S  S  S  S  S  S  S  S  Q    Q     
------------------------------------|
------------------------------------|
------------------------------------|
------------------------------------|
--------------------------5----7----|
--2--2--2--2--2--2--2--2--3----5----|


   Solo 2 Dave Murray                                                           
   |-----------3----------|   |---3---|       |---3---|       |---3---|       |-
   S                  S   S   S   S   S  E    S   S   S  E    S   S   S  E    S 
--------------------------------------------------------------------------------
--14h----------------15p-14h-15p-14p-12-12~--12h-15p-14-12~--12h-15p-14-12~--12h
--------------------------------------------------------------------------------
--------------------------------------------------------------------------------
--------------------------------------------------------------------------------
--------------------------------------------------------------------------------


   |---3--|   |---3--|  |---3--|   |---3--|             
   S  S   S   S   S  S  S  S   S   S   S  S  H          
--------------------------------------------12b--------|
--12-12h-15p-14p-12-12-12-12h-15p-14p-12-12------------|
-------------------------------------------------------|
-------------------------------------------------------|
-------------------------------------------------------|
-------------------------------------------------------|


   |---3---|  |---3---|  |---3---|  |---3---|  |---3---|  |---3---|  |---3---|  
   S   S   S  S   S   S  S   S   S  S   S   S  S   S   S  S   S   S  S   S   S  
--14h-15p-14-14h-15p-14-14h-15p-14-14h-15p-14-14h-15p-14-14h-15p-14-14h-15p-14-1
--------------------------------------------------------------------------------
--------------------------------------------------------------------------------
--------------------------------------------------------------------------------
--------------------------------------------------------------------------------
--------------------------------------------------------------------------------


   H          H           
--17b--------17b~--------|
-------------------------|
-------------------------|
-------------------------|
-------------------------|
-------------------------|


   |---3--|  |---3--|  |---3--|  |---3--|  |---3--|  |---3--|      |---3---|    
   S   S  S  S   S  S  S   S  S  S   S  S  S   S  S  S   S  S  S   S   S   S  S 
--------------------------------------------------------------------------------
------12-12-----12-12-----12-12-----12-12-----12-12-----12-12-------------------
--14b-------14b-------14b-------14b-------14b-------14b-------14b-11h-14p-11-11-
--------------------------------------------------------------------------------
--------------------------------------------------------------------------------
--------------------------------------------------------------------------------


   |---3---|  |--3--|  |--3--|   |---3---|  |---3---|                    
   S   S   S  S  S  S  S  S  S   S   S   S  S   S   S  E    S   S  S  S  
------------------------------------------------------------------------|
-----------------------------------------------------------14h-15-17-15-|
------------------------------------------------------------------------|
--14p-12h-14-12-12-11-12-11---------------------------------------------|
----------------------------14p-12h-14p-12------------------------------|
-------------------------------------------12h-14p-12-10~---------------|


   |---3---|  |---3---|  |---3---|  |---3---|  |---3---|  |---3---|  |---3---|  
   S   S   S  S   S   S  S   S   S  S   S   S  S   S   S  S   S   S  S   S   S  
--------------------------------------------------------------------------------
--14h-15p-14-14h-17p-15-14h-15p-14-14h-17p-15-14h-15p-14-17p-15p-14-17p-15p-14-1
--------------------------------------------------------------------------------
--------------------------------------------------------------------------------
--------------------------------------------------------------------------------
--------------------------------------------------------------------------------


   |---3---|        |---3---|        |----3----|             
   S   S   S  S  S  S   S   S  S  S  E    E    E    Q        
-------------14-15-14h-15p-14-15-17-17b--17b--17b--17pb~----|
--14h-15p-14------------------------------------------------|
------------------------------------------------------------|
------------------------------------------------------------|
------------------------------------------------------------|
------------------------------------------------------------|


  Coro                                                                     
  Q    E  E  E.  S Q       Q    E  E  E.  S Q       Q    E  E  E.  S Q     
-------------0----------|-------------0----------|-------------0----------|
-----------------0-L----|-----------------0-L----|-----------------0-L----|
----------9-------------|----------4-------------|----------2-------------|
-------9----------------|-------4----------------|-------2----------------|
--7---------------------|--2---------------------|--0---------------------|
------------------------|------------------------|------------------------|


  H        H           Q    E  E  E.  S Q       Q    E  E  E.  S Q     
--------------------|-------------0----------|-------------0----------|
--------------------|-----------------0-L----|-----------------0-L----|
--6--------4--------|----------9-------------|----------4-------------|
--6--------4--------|-------9----------------|-------4----------------|
--4--------2--------|--7---------------------|--2---------------------|
--------------------|------------------------|------------------------|


  Q    E  E  E.  S Q       H        H           Q    E  E  E.  S Q     
-------------0----------|--------------------|-------------0----------|
-----------------0-L----|--------------------|-----------------0-L----|
----------2-------------|--6--------4--------|----------9-------------|
-------2----------------|--6--------4--------|-------9----------------|
--0---------------------|--4--------2--------|--7---------------------|
------------------------|--------------------|------------------------|


  Q    E  E  E.  S Q       Q    E  E  E.  S Q       H        H         
-------------0----------|-------------0----------|--------------------|
-----------------0-L----|-----------------0-L----|--------------------|
----------4-------------|----------2-------------|--6--------4--------|
-------4----------------|-------2----------------|--6--------4--------|
--2---------------------|--0---------------------|--4--------2--------|
------------------------|------------------------|--------------------|


  Q    E  E  E.  S Q       Q    E  E  E.  S Q       Q    E  E  E.  S Q     
-------------0----------|-------------0----------|-------------0----------|
-----------------0-L----|-----------------0-L----|-----------------0-L----|
----------9-------------|----------4-------------|----------2-------------|
-------9----------------|-------4----------------|-------2----------------|
--7---------------------|--2---------------------|--0---------------------|
------------------------|------------------------|------------------------|


                       Outro                                            
  H        H           Q     E  E  E.  S Q       Q    E  E  E.  S Q     
--------------------|--------------0----------|-------------0----------|
--------------------|------------------0-L----|-----------------0-L----|
--6--------4--------|-----------9-------------|----------4-------------|
--6--------4--------|--------9----------------|-------4----------------|
--4--------2--------|--7----------------------|--2---------------------|
--------------------|-------------------------|------------------------|


  Q    E  E  E.  S Q       H        H           Q    E  E  E.  S Q     
-------------0----------|--------------------|-------------0----------|
-----------------0-L----|--------------------|-----------------0-L----|
----------2-------------|--6--------4--------|----------9-------------|
-------2----------------|--6--------4--------|-------9----------------|
--0---------------------|--4--------2--------|--7---------------------|
------------------------|--------------------|------------------------|


  Q    E  E  E.  S Q       Q    E  E  E.  S Q       H        H         
-------------0----------|-------------0----------|--------------------|
-----------------0-L----|-----------------0-L----|--------------------|
----------4-------------|----------2-------------|--6--------4--------|
-------4----------------|-------2----------------|--6--------4--------|
--2---------------------|--0---------------------|--4--------2--------|
------------------------|------------------------|--------------------|


  W                   W                   W                  
-------------------|-------------------|-------------------||
-------------------|-------------------|-------------------||
--9----------------|--L----------------|--L----------------||
--9----------------|--L----------------|--L----------------||
--7----------------|--L----------------|--L----------------||
-------------------|-------------------|-------------------||




Guitar #3:
                                 
Janick Gers

          Intro                                                              
     S    W                   W                     S S S S S E.   H         
E||----|-------------------|-------------------||---------------------------|
B||----|-------------------|-------------------||---------------------------|
G||----|-------------------|-------------------||*--------------------------|
D||----|-------------------|-------------------||*--------------------------|
A||----|-------------------|-------------------||---9-9-9-7-9---------------|
E||----|-------------------|-------------------||---7-7-7-5-7-L\------------|


  S S S S E  S S H           S S S S E  E  H         
--------------------------|-------------------------|
--------------------------|-------------------------|
-----------------7--------|-------------------------|
-----------------7--------|-------------------------|
--9-9-9-7-9--x-x-5--------|--7-7-7-5-7--------------|
--7-7-7-5-7--x-x----------|--5-5-5-3-5--------------|


  S S S S E  S S E.  S E.  S    S S S S S E.   H         
-----------------------------|--------------------------|
-----------------------------|--------------------------|
-----------------------------|--------------------------|
-----------------------------|--------------------------|
--4-4-4-2-4--x-x-7-----2-----|--9-9-9-7-9---------------|
--2-2-2-0-2--x-x-5-----0-----|--7-7-7-5-7-L\------------|


  S S S S E  E  H           S S S S E  E  H         
-------------------------|-------------------------|
-------------------------|-------------------------|
-------------7--L--------|-------------------------|
-------------7--L--------|-------------------------|
--9-9-9-7-9--5--L--------|--7-7-7-5-7--------------|
--7-7-7-5-7--------------|--5-5-5-3-5--------------|


                                Riff A                                   
                                PM     PM PM PM PM PM PM                 
  S S S S E  E.  S Q.           S      S  S  S  S  S  S  E  S E  S S E   
---------------------------||-------------------------------------------|
---------------------------||-------------------------------------------|
--------------------------*||*------------------------------------------|
--------------------------*||*---------------------------4--4-2---------|
--4-4-4-2-4--5-----7-------||---2------2--2--2--2--2--2--2--2-0---------|
--2-2-2-0-2--3-----5-------||------------------------------------3-2-0--|


  PM PM PM PM PM                     PM PM PM PM PM PM PM                  
  S  S  S  S  S  S S S E.  E.  E     S  S  S  S  S  S  S  E  S E  S S S S  
----------------------------------|---------------------------------------|
----------------------------------|---------------------------------------|
----------------------------------|-------------------------------------7-|
-----------------4-4-4-7---6---2--|-----------------------4--4-2--------7-|
--2--2--2--2--2--2-2-2-5---4---0--|--2--2--2--2--2--2--2--2--2-0--------5-|
----------------------------------|-------------------------------3-2-0---|


                           Verso Riff 1                                   
                           PM           PM PM PM PM PM PM                 
  Q.     S S H             S            S  S  S  S  S  S  E  S E  S S E   
-----------------------||------------------------------------------------|
-----------------------||------------------------------------------------|
--L------L------------*||------------------------------------------------|
--L------L-2-L--------*||---------------------------------4--4-2---------|
--L------L-2-L---------||--2------------2--2--2--2--2--2--2--2-0---------|
-----------0-L---------||-----------------------------------------3-2-0--|


  PM PM PM PM PM                     PM PM PM PM PM PM PM                  
  S  S  S  S  S  S S S E.  E.  E     S  S  S  S  S  S  S  E  S E  S S S S  
----------------------------------|---------------------------------------|
----------------------------------|---------------------------------------|
----------------------------------|-------------------------------------7-|
-----------------4-4-4-7---6---2--|-----------------------4--4-2--------7-|
--2--2--2--2--2--2-2-2-5---4---0--|--2--2--2--2--2--2--2--2--2-0--------5-|
----------------------------------|-------------------------------3-2-0---|


                         PM PM PM PM PM PM PM                 
  Q.     S S H           S  S  S  S  S  S  S  E  S E  S S E   
----------------------|--------------------------------------|
----------------------|--------------------------------------|
--L------L------------|--------------------------------------|
--L------L-2-L--------|-----------------------4--4-2---------|
--L------L-2-L--------|--2--2--2--2--2--2--2--2--2-0---------|
-----------0-L--------|-------------------------------3-2-0--|


  PM PM PM PM PM                     PM PM PM PM PM PM PM                  
  S  S  S  S  S  S S S E.  E.  E     S  S  S  S  S  S  S  E  S E  S S S S  
----------------------------------|---------------------------------------|
----------------------------------|---------------------------------------|
----------------------------------|-------------------------------------7-|
-----------------4-4-4-7---6---2--|-----------------------4--4-2--------7-|
--2--2--2--2--2--2-2-2-5---4---0--|--2--2--2--2--2--2--2--2--2-0--------5-|
----------------------------------|-------------------------------3-2-0---|


                         Verso Riff 2                                         
                                      PM PM PM PM PM    PM PM PM PM PM PM PM  
  Q.     S S H           E            S  S  S  S  S  E  S  S  S  S  S  S  S   
----------------------|------------------------------------------------------|
----------------------|------------------------------------------------------|
--L------L------------|------------------------------------------------------|
--L------L-2-L--------|--2---------------------------4-----------------------|
--L------L-2-L--------|--0------------0--0--0--0--0--0--0--0--0--0--0--0--0--|
-----------0-L--------|------------------------------------------------------|


     PM PM PM PM PM    PM PM PM PM PM PM PM  
  E  S  S  S  S  S  E  S  S  S  S  S  S  S   
--------------------------------------------|
--------------------------------------------|
--------------------------------------------|
--2-----------------4-----------------------|
--0--0--0--0--0--0--0--0--0--0--0--0--0--0--|
--------------------------------------------|


     PM PM PM PM PM    PM PM PM PM PM PM PM  
  E  S  S  S  S  S  E  S  S  S  S  S  S  S   
--------------------------------------------|
--------------------------------------------|
--------------------------------------------|
--2-----------------4-----------------------|
--0--0--0--0--0--0--0--0--0--0--0--0--0--0--|
--------------------------------------------|


     PM PM PM PM PM    PM PM PM PM PM PM PM  
  E  S  S  S  S  S  E  S  S  S  S  S  S  S   
--------------------------------------------|
--------------------------------------------|
--------------------------------------------|
--2-----------------4-----------------------|
--0--0--0--0--0--0--0--0--0--0--0--0--0--0--|
--------------------------------------------|


  Pre-Coro                                                          
  E        S S S S E.  S S S S S E     E  S S S S E.  S S S S E  S  
------------------------------------|------------------------------|
------------------------------------|----------------------------5-|
--7--------7-7-7-7-5---5-5-5-4-5----|--7--7-7-7-7-5---5-5-5-4-5--4-|
--7--------7-7-7-7-5---5-5-5-4-5----|--7--7-7-7-7-5---5-5-5-4-5--4-|
------------------------------------|------------------------------|
------------------------------------|------------------------------|


                                                   Coro                   
  Q.     S S H           E.  E.  Q.        E  S    Q    E  E  E.  S Q     
----------------------|-----------------|-------|-------------0----------|
--L------L-4-L--------|-----------------|-------|-----------------0-L----|
--L------L-4-L--------|-----------------|-------|------------------------|
--L------L-4-L--------|--2-------4------|--L----|----------2-------------|
----------------------|--0---2---2------|--L----|-------2----------------|
----------------------|------0----------|-----0-|--0---------------------|


  Q    E  E  E.  S Q       Q    E  E  E.  S Q       H        H         
-------------0----------|-------------0----------|--------------------|
-----------------0-L----|-----------------0-L----|--------------------|
----------4-------------|----------2-------------|--6--------4--------|
-------4----------------|-------2----------------|--6--------4--------|
--2---------------------|--0---------------------|--4--------2--------|
------------------------|------------------------|--------------------|


  Q    E  E  E.  S Q       Q    E  E  E.  S Q       Q    E  E  E.  S Q     
-------------0----------|-------------0----------|-------------0----------|
-----------------0-L----|-----------------0-L----|-----------------0-L----|
------------------------|----------4-------------|----------2-------------|
----------2-------------|-------4----------------|-------2----------------|
-------2----------------|--2---------------------|--0---------------------|
--0---------------------|------------------------|------------------------|


                       Riff A                                   
                       PM     PM PM PM PM PM PM                 
  H        H           S      S  S  S  S  S  S  E  S E  S S E   
--------------------|------------------------------------------|
--------------------|------------------------------------------|
--6--------7--------|------------------------------------------|
--6--------7--------|---------------------------4--4-2---------|
--4--------5--------|--2------2--2--2--2--2--2--2--2-0---------|
--------------------|-----------------------------------3-2-0--|


  PM PM PM PM PM                     PM PM PM PM PM PM PM                  
  S  S  S  S  S  S S S E.  E.  E     S  S  S  S  S  S  S  E  S E  S S S S  
----------------------------------|---------------------------------------|
----------------------------------|---------------------------------------|
----------------------------------|-------------------------------------7-|
-----------------4-4-4-7---6---2--|-----------------------4--4-2--------7-|
--2--2--2--2--2--2-2-2-5---4---0--|--2--2--2--2--2--2--2--2--2-0--------5-|
----------------------------------|-------------------------------3-2-0---|


                         Verso Riff 1                                   
                         PM           PM PM PM PM PM PM                 
  Q.     S S H           S            S  S  S  S  S  S  E  S E  S S E   
----------------------|------------------------------------------------|
----------------------|------------------------------------------------|
--L------L------------|------------------------------------------------|
--L------L-2-L--------|---------------------------------4--4-2---------|
--L------L-2-L--------|--2------------2--2--2--2--2--2--2--2-0---------|
-----------0-L--------|-----------------------------------------3-2-0--|


  PM PM PM PM PM                     PM PM PM PM PM PM PM                  
  S  S  S  S  S  S S S E.  E.  E     S  S  S  S  S  S  S  E  S E  S S S S  
----------------------------------|---------------------------------------|
----------------------------------|---------------------------------------|
----------------------------------|-------------------------------------7-|
-----------------4-4-4-7---6---2--|-----------------------4--4-2--------7-|
--2--2--2--2--2--2-2-2-5---4---0--|--2--2--2--2--2--2--2--2--2-0--------5-|
----------------------------------|-------------------------------3-2-0---|


                         PM PM PM PM PM PM PM                 
  Q.     S S H           S  S  S  S  S  S  S  E  S E  S S E   
----------------------|--------------------------------------|
----------------------|--------------------------------------|
--L------L------------|--------------------------------------|
--L------L-2-L--------|-----------------------4--4-2---------|
--L------L-2-L--------|--2--2--2--2--2--2--2--2--2-0---------|
-----------0-L--------|-------------------------------3-2-0--|


  PM PM PM PM PM                     PM PM PM PM PM PM PM                  
  S  S  S  S  S  S S S E.  E.  E     S  S  S  S  S  S  S  E  S E  S S S S  
----------------------------------|---------------------------------------|
----------------------------------|---------------------------------------|
----------------------------------|-------------------------------------7-|
-----------------4-4-4-7---6---2--|-----------------------4--4-2--------7-|
--2--2--2--2--2--2-2-2-5---4---0--|--2--2--2--2--2--2--2--2--2-0--------5-|
----------------------------------|-------------------------------3-2-0---|


                         Verso Riff 2                                         
                                      PM PM PM PM PM    PM PM PM PM PM PM PM  
  Q.     S S H           E            S  S  S  S  S  E  S  S  S  S  S  S  S   
----------------------|------------------------------------------------------|
----------------------|------------------------------------------------------|
--L------L------------|------------------------------------------------------|
--L------L-2-L--------|--2---------------------------4-----------------------|
--L------L-2-L--------|--0------------0--0--0--0--0--0--0--0--0--0--0--0--0--|
-----------0-L--------|------------------------------------------------------|


     PM PM PM PM PM    PM PM PM PM PM PM PM  
  E  S  S  S  S  S  E  S  S  S  S  S  S  S   
--------------------------------------------|
--------------------------------------------|
--------------------------------------------|
--2-----------------4-----------------------|
--0--0--0--0--0--0--0--0--0--0--0--0--0--0--|
--------------------------------------------|


     PM PM PM PM PM    PM PM PM PM PM PM PM  
  E  S  S  S  S  S  E  S  S  S  S  S  S  S   
--------------------------------------------|
--------------------------------------------|
--------------------------------------------|
--2-----------------4-----------------------|
--0--0--0--0--0--0--0--0--0--0--0--0--0--0--|
--------------------------------------------|


     PM PM PM PM PM    PM PM PM PM PM PM PM  
  E  S  S  S  S  S  E  S  S  S  S  S  S  S   
--------------------------------------------|
--------------------------------------------|
--------------------------------------------|
--2-----------------4-----------------------|
--0--0--0--0--0--0--0--0--0--0--0--0--0--0--|
--------------------------------------------|


  Pre-Coro                                                          
  E        S S S S E.  S S S S S E     E  S S S S E.  S S S S E  S  
------------------------------------|------------------------------|
------------------------------------|----------------------------5-|
--7--------7-7-7-7-5---5-5-5-4-5----|--7--7-7-7-7-5---5-5-5-4-5--4-|
--7--------7-7-7-7-5---5-5-5-4-5----|--7--7-7-7-7-5---5-5-5-4-5--4-|
------------------------------------|------------------------------|
------------------------------------|------------------------------|


                                                   Coro                   
  Q.     S S H           E.  E.  Q.        E  S    Q    E  E  E.  S Q     
----------------------|-----------------|-------|-------------0----------|
--L------L-4-L--------|-----------------|-------|-----------------0-L----|
--L------L-4-L--------|-----------------|-------|------------------------|
--L------L-4-L--------|--2-------4------|--L----|----------2-------------|
----------------------|--0---2---2------|--L----|-------2----------------|
----------------------|------0----------|-----0-|--0---------------------|


  Q    E  E  E.  S Q       Q    E  E  E.  S Q       H        H         
-------------0----------|-------------0----------|--------------------|
-----------------0-L----|-----------------0-L----|--------------------|
----------4-------------|----------2-------------|--6--------4--------|
-------4----------------|-------2----------------|--6--------4--------|
--2---------------------|--0---------------------|--4--------2--------|
------------------------|------------------------|--------------------|


  Q    E  E  E.  S Q       Q    E  E  E.  S Q       Q    E  E  E.  S Q     
-------------0----------|-------------0----------|-------------0----------|
-----------------0-L----|-----------------0-L----|-----------------0-L----|
------------------------|----------4-------------|----------2-------------|
----------2-------------|-------4----------------|-------2----------------|
-------2----------------|--2---------------------|--0---------------------|
--0---------------------|------------------------|------------------------|


  H        H           Q    E  E  E.  S Q       Q    E  E  E.  S Q     
--------------------|-------------0----------|-------------0----------|
--------------------|-----------------0-L----|-----------------0-L----|
--6--------4--------|------------------------|----------4-------------|
--6--------4--------|----------2-------------|-------4----------------|
--4--------2--------|-------2----------------|--2---------------------|
--------------------|--0---------------------|------------------------|


  Q    E  E  E.  S Q       H        H           Q    E  E  E.  S Q     
-------------0----------|--------------------|-------------0----------|
-----------------0-L----|--------------------|-----------------0-L----|
----------2-------------|--6--------4--------|------------------------|
-------2----------------|--6--------4--------|----------2-------------|
--0---------------------|--4--------2--------|-------2----------------|
------------------------|--------------------|--0---------------------|


  Q    E  E  E.  S Q       Q    E  E  E.  S Q       H        H         
-------------0----------|-------------0----------|--------------------|
-----------------0-L----|-----------------0-L----|--------------------|
----------4-------------|----------2-------------|--6--------7--------|
-------4----------------|-------2----------------|--6--------7--------|
--2---------------------|--0---------------------|--4--------5--------|
------------------------|------------------------|--------------------|


  Interludio A                                                   
  S            S S S S E.   H           S S S S E  S S H         
-------------------------------------|--------------------------|
-------------------------------------|--------------------------|
-------------------------------------|-----------------7--------|
-------------------------------------|-----------------7--------|
--9------------9-9-7-9---------------|--9-9-9-7-9--x-x-5--------|
--7------------7-7-5-7-L\------------|--7-7-7-5-7--x-x----------|


  S S S S E  E  H           S S S S E  S S E.  S E.  S  
-------------------------|-----------------------------|
-------------------------|-----------------------------|
-------------------------|-----------------------------|
-------------------------|-----------------------------|
--7-7-7-5-7--------------|--4-4-4-2-4--x-x-7-----2-----|
--5-5-5-3-5--------------|--2-2-2-0-2--x-x-5-----0-----|


  S S S S S E.   H           S S S S E  E  H           S S S S E  E  H         
--------------------------|-------------------------|-------------------------|
--------------------------|-------------------------|-------------------------|
--------------------------|-------------7--L--------|-------------------------|
--------------------------|-------------7--L--------|-------------------------|
--9-9-9-7-9---------------|--9-9-9-7-9--5--L--------|--7-7-7-5-7--------------|
--7-7-7-5-7-L\------------|--7-7-7-5-7--------------|--5-5-5-3-5--------------|


                             Interludio B                              
                                             PM PM PM        PM PM     
  S S S S E  E.  S Q.        E            E  S  S  S  E.  E  S  S  E   
--------------------------|-------------------------------------------|
--------------------------|-------------------------------------------|
--------------------------|-------------------------------------------|
--------------------------|--4------------4-----------4---4--------4--|
--4-4-4-2-4--5-----7------|--2------------2--2--2--2--2---2--2--2--2--|
--2-2-2-0-2--3-----5------|-------------------------------------------|


  PM PM PM PM PM PM PM                     PM PM PM        PM PM     
  S  S  S  S  S  S  S  S H           E  E  S  S  S  E.  E  S  S  E   
----------------------------------|---------------------------------|
----------------------------------|---------------------------------|
-----------------------7-L--------|---------------------------------|
-----------------------7-L--------|---------------------------------|
--2--2--2--2--2--2--2--5-L--------|--7--7-----------7---7--------7--|
----------------------------------|--5--5--5--5--5--5---5--5--5--5--|


  PM PM PM PM PM PM PM PM                    PM PM PM        PM PM     
  S  S  S  S  S  S  S  S  Q    Q       E  E  S  S  S  E.  E  S  S  E   
------------------------------------|---------------------------------|
------------------------------------|---------------------------------|
------------------------------------|---------------------------------|
--------------------------2---------|--4--4-----------4---4--------4--|
--------------------------0----2----|--2--2--2--2--2--2---2--2--2--2--|
--2--2--2--2--2--2--2--2-------0----|---------------------------------|


  PM PM PM PM PM PM PM                     PM PM PM        PM PM     
  S  S  S  S  S  S  S  S H           E  E  S  S  S  E.  E  S  S  E   
----------------------------------|---------------------------------|
----------------------------------|---------------------------------|
-----------------------7-L--------|---------------------------------|
-----------------------7-L--------|---------------------------------|
--2--2--2--2--2--2--2--5-L--------|--7--7-----------7---7--------7--|
----------------------------------|--5--5--5--5--5--5---5--5--5--5--|


  PM PM PM PM PM PM PM PM            
  S  S  S  S  S  S  S  S  Q    Q     
------------------------------------|
------------------------------------|
------------------------------------|
------------------------------------|
--------------------------5----7----|
--2--2--2--2--2--2--2--2--3----5----|


  Solo 1 Adrian Smith                              
                         PM PM PM        PM PM     
  E                   E  S  S  S  E.  E  S  S  E   
--------------------------------------------------|
--------------------------------------------------|
--------------------------------------------------|
--4-------------------4-----------4---4--------4--|
--2-------------------2--2--2--2--2---2--2--2--2--|
--------------------------------------------------|


  PM PM PM PM PM PM PM                     PM PM PM        PM PM     
  S  S  S  S  S  S  S  S H           E  E  S  S  S  E.  E  S  S  E   
----------------------------------|---------------------------------|
----------------------------------|---------------------------------|
-----------------------7-L--------|---------------------------------|
-----------------------7-L--------|---------------------------------|
--2--2--2--2--2--2--2--5-L--------|--7--7-----------7---7--------7--|
----------------------------------|--5--5--5--5--5--5---5--5--5--5--|


  PM PM PM PM PM PM PM PM                    PM PM PM        PM PM     
  S  S  S  S  S  S  S  S  Q    Q       E  E  S  S  S  E.  E  S  S  E   
------------------------------------|---------------------------------|
------------------------------------|---------------------------------|
------------------------------------|---------------------------------|
--------------------------2---------|--4--4-----------4---4--------4--|
--------------------------0----2----|--2--2--2--2--2--2---2--2--2--2--|
--2--2--2--2--2--2--2--2-------0----|---------------------------------|


  PM PM PM PM PM PM PM                     PM PM PM        PM PM     
  S  S  S  S  S  S  S  S H           E  E  S  S  S  E.  E  S  S  E   
----------------------------------|---------------------------------|
----------------------------------|---------------------------------|
-----------------------7-L--------|---------------------------------|
-----------------------7-L--------|---------------------------------|
--2--2--2--2--2--2--2--5-L--------|--7--7-----------7---7--------7--|
----------------------------------|--5--5--5--5--5--5---5--5--5--5--|


  PM PM PM PM PM PM PM PM            
  S  S  S  S  S  S  S  S  Q    Q     
------------------------------------|
------------------------------------|
------------------------------------|
------------------------------------|
--------------------------5----7----|
--2--2--2--2--2--2--2--2--3----5----|


  Solo 2 Dave Murray                              
                        PM PM PM        PM PM     
  E                  E  S  S  S  E.  E  S  S  E   
-------------------------------------------------|
-------------------------------------------------|
-------------------------------------------------|
--4------------------4-----------4---4--------4--|
--2------------------2--2--2--2--2---2--2--2--2--|
-------------------------------------------------|


  PM PM PM PM PM PM PM                     PM PM PM        PM PM     
  S  S  S  S  S  S  S  S H           E  E  S  S  S  E.  E  S  S  E   
----------------------------------|---------------------------------|
----------------------------------|---------------------------------|
-----------------------7-L--------|---------------------------------|
-----------------------7-L--------|---------------------------------|
--2--2--2--2--2--2--2--5-L--------|--7--7-----------7---7--------7--|
----------------------------------|--5--5--5--5--5--5---5--5--5--5--|


  PM PM PM PM PM PM PM PM                    PM PM PM        PM PM     
  S  S  S  S  S  S  S  S  Q    Q       E  E  S  S  S  E.  E  S  S  E   
------------------------------------|---------------------------------|
------------------------------------|---------------------------------|
------------------------------------|---------------------------------|
--------------------------2---------|--4--4-----------4---4--------4--|
--------------------------0----2----|--2--2--2--2--2--2---2--2--2--2--|
--2--2--2--2--2--2--2--2-------0----|---------------------------------|


  PM PM PM PM PM PM PM                     PM PM PM        PM PM     
  S  S  S  S  S  S  S  S H           E  E  S  S  S  E.  E  S  S  E   
----------------------------------|---------------------------------|
----------------------------------|---------------------------------|
-----------------------7-L--------|---------------------------------|
-----------------------7-L--------|---------------------------------|
--2--2--2--2--2--2--2--5-L--------|--7--7-----------7---7--------7--|
----------------------------------|--5--5--5--5--5--5---5--5--5--5--|


                                        Coro                   
  PM PM PM PM PM PM PM PM                                      
  S  S  S  S  S  S  S  S  Q    E.  S    Q    E  E  E.  S Q     
-------------------------------------|-------------0----------|
-------------------------------------|-----------------0-L----|
-------------------------------------|------------------------|
-------------------------------------|----------2-------------|
--------------------------5----7-----|-------2----------------|
--2--2--2--2--2--2--2--2--3----5---0-|--L---------------------|


  Q    E  E  E.  S Q       Q    E  E  E.  S Q       H        H         
-------------0----------|-------------0----------|--------------------|
-----------------0-L----|-----------------0-L----|--------------------|
----------4-------------|----------2-------------|--6--------4--------|
-------4----------------|-------2----------------|--6--------4--------|
--2---------------------|--0---------------------|--4--------2--------|
------------------------|------------------------|--------------------|


  Q    E  E  E.  S Q       Q    E  E  E.  S Q       Q    E  E  E.  S Q     
-------------0----------|-------------0----------|-------------0----------|
-----------------0-L----|-----------------0-L----|-----------------0-L----|
------------------------|----------4-------------|----------2-------------|
----------2-------------|-------4----------------|-------2----------------|
-------2----------------|--2---------------------|--0---------------------|
--0---------------------|------------------------|------------------------|


  H        H           Q    E  E  E.  S Q       Q    E  E  E.  S Q     
--------------------|-------------0----------|-------------0----------|
--------------------|-----------------0-L----|-----------------0-L----|
--6--------4--------|------------------------|----------4-------------|
--6--------4--------|----------2-------------|-------4----------------|
--4--------2--------|-------2----------------|--2---------------------|
--------------------|--0---------------------|------------------------|


  Q    E  E  E.  S Q       H        H           Q    E  E  E.  S Q     
-------------0----------|--------------------|-------------0----------|
-----------------0-L----|--------------------|-----------------0-L----|
----------2-------------|--6--------4--------|------------------------|
-------2----------------|--6--------4--------|----------2-------------|
--0---------------------|--4--------2--------|-------2----------------|
------------------------|--------------------|--0---------------------|


  Q    E  E  E.  S Q       Q    E  E  E.  S Q       H        H         
-------------0----------|-------------0----------|--------------------|
-----------------0-L----|-----------------0-L----|--------------------|
----------4-------------|----------2-------------|--6--------4--------|
-------4----------------|-------2----------------|--6--------4--------|
--2---------------------|--0---------------------|--4--------2--------|
------------------------|------------------------|--------------------|


  Outro                                                                     
  Q     E  E  E.  S Q       Q    E  E  E.  S Q       Q    E  E  E.  S Q     
--------------0----------|-------------0----------|-------------0----------|
------------------0-L----|-----------------0-L----|-----------------0-L----|
-------------------------|----------4-------------|----------2-------------|
-----------2-------------|-------4----------------|-------2----------------|
--------2----------------|--2---------------------|--0---------------------|
--0----------------------|------------------------|------------------------|


  H        H           Q    E  E  E.  S Q       Q    E  E  E.  S Q     
--------------------|-------------0----------|-------------0----------|
--------------------|-----------------0-L----|-----------------0-L----|
--6--------4--------|------------------------|----------4-------------|
--6--------4--------|----------2-------------|-------4----------------|
--4--------2--------|-------2----------------|--2---------------------|
--------------------|--0---------------------|------------------------|


  Q    E  E  E.  S Q       H        H           W                 
-------------0----------|--------------------|-------------------|
-----------------0-L----|--------------------|-------------------|
----------2-------------|--6--------4--------|-------------------|
-------2----------------|--6--------4--------|--2----------------|
--0---------------------|--4--------2--------|--2----------------|
------------------------|--------------------|--0----------------|


  W                   W                  
-------------------|-------------------||
-------------------|-------------------||
-------------------|-------------------||
--L----------------|--L----------------||
--L----------------|--L----------------||
--L----------------|--L----------------||




Voice Melody:
                                
Bruce Dickinson


          Intro                                                       
     S    W                   W                     W                 
E||----|-------------------|-------------------||--------------------|
B||----|-------------------|-------------------||--------------------|
G||----|-------------------|-------------------||*-------------------|
D||----|-------------------|-------------------||*-------------------|
A||----|-------------------|-------------------||--------------------|
E||----|-------------------|-------------------||--------------------|


                        Verso Riff 1                          
                                      I'm on  the run,        
  W                     E             E   E   S   E.  Q.      
--------------------||---------------14--14--12--14----------|
--------------------||---------------------------------------|
-------------------*||---------------------------------------|
-------------------*||---------------------------------------|
--------------------||---------------------------------------|
--------------------||---------------------------------------|


      I   kill to eat               I'm star ving    now, I'm fee ling dead 
  E   E   E    S  E.  Q.        E   E   E    T    T  E.   E   S   E    S    
-----17--19---17-19----------|-----14--14---12----L-14---12--14--12---14---|
-----------------------------|---------------------------------------------|
-----------------------------|---------------------------------------------|
-----------------------------|---------------------------------------------|
-----------------------------|---------------------------------------------|
-----------------------------|---------------------------------------------|


         on  my    feet               Go ing all the    way,        
   Q     E   T  T  Q    S Q       E   S  S   E   T   T  E.  Q.      
---L----17--14--L-12-----------|-----14-14--14--12---L-14----------|
-------------------------------|-----------------------------------|
-------------------------------|-----------------------------------|
-------------------------------|-----------------------------------|
-------------------------------|-----------------------------------|
-------------------------------|-----------------------------------|


      I'm na  ture's    beast              Do  what I     want,    I'll do  as  
                                                                   |----3---|   
  E   E   E   T      T  E.   Q.        E   E   E    T  T  E.   E   E    E   E   
-----17--19--17------L-19-----------|-----14--14---12--L-14-------14---12--14--|
------------------------------------|------------------------------------------|
------------------------------------|------------------------------------------|
------------------------------------|------------------------------------------|
------------------------------------|------------------------------------------|
------------------------------------|------------------------------------------|


                                 Verso Riff 2                     
           I   please.           Run!                      Fight! 
   Q    S  E   Q      S Q        Q           H        E.   S      
---L------17--12-------------|--17------------------------17-----|
-----------------------------|-----------------------------------|
-----------------------------|-----------------------------------|
-----------------------------|-----------------------------------|
-----------------------------|-----------------------------------|
-----------------------------|-----------------------------------|


                     To    breathe!                      It's    tough! 
   S H.           S  T  T  S           S H.           S  T    T  S      
---L----------------15--L-17-------|---L----------------15----L-17-----|
-----------------------------------|-----------------------------------|
-----------------------------------|-----------------------------------|
-----------------------------------|-----------------------------------|
-----------------------------------|-----------------------------------|
-----------------------------------|-----------------------------------|


                         Pre-Coro                                  
                                   Now you    see me      (ha ha!) 
   S E.  H.              Q         E   T   T  E   E  E.   S   S    
---L------------------|-----------19--19---L-17--19------19--19---|
----------------------|-------------------------------------------|
----------------------|-------------------------------------------|
----------------------|-------------------------------------------|
----------------------|-------------------------------------------|
----------------------|-------------------------------------------|


          Now you    don't                  Break the    walls,        
   S E.   E   T   T  E    E.  Q       Q     E     T   T  Q     S Q     
---L-----19--17---L-19-------------|-------14----14---L-14~-----------|
-----------------------------------|----------------------------------|
-----------------------------------|----------------------------------|
-----------------------------------|----------------------------------|
-----------------------------------|----------------------------------|
-----------------------------------|----------------------------------|


                                    Coro                          
      I'm  co ming out.                   Not a   pri so ne  er   
  E   E.   S  E    Q        S E     Q     E   E   E   S  E   E.   
-----19---17-19---19----|---L----|-------16--16--16--16-14--12---|
------------------------|--------|-------------------------------|
------------------------|--------|-------------------------------|
------------------------|--------|-------------------------------|
------------------------|--------|-------------------------------|
------------------------|--------|-------------------------------|


        I'm a   free ma  an,          And my  blood is  my  own 
  Q     E   E   E.   E   E.     Q     E   E   E.    E   E   S   
-------14--12--16---14--12---|-------16--16--16----14--12------|
-----------------------------|-----------------------------14--|
-----------------------------|---------------------------------|
-----------------------------|---------------------------------|
-----------------------------|---------------------------------|
-----------------------------|---------------------------------|


             now.              Don't ca   aa  re,  
   H         H           Q     Q     E.   E   E.   
----------------------|-------16----16---14--12---|
---L--------12--------|---------------------------|
----------------------|---------------------------|
----------------------|---------------------------|
----------------------|---------------------------|
----------------------|---------------------------|


        where    the past wa  as,            I   know where    I'm go 
  Q     S     S  E   E.   E   E.     Q.      E   E.   S     S  E   S  
-------14-----L-12--16---14--12---|---------16--16---17-----L-19--16-|
----------------------------------|----------------------------------|
----------------------------------|----------------------------------|
----------------------------------|----------------------------------|
----------------------------------|----------------------------------|
----------------------------------|----------------------------------|


                           Riff A                                  
             ing...        Out!                                    
   H         H             Q     H.              W                 
---L--------14~--------|--17------------------|-------------------|
-----------------------|----------------------|-------------------|
-----------------------|----------------------|-------------------|
-----------------------|----------------------|-------------------|
-----------------------|----------------------|-------------------|
-----------------------|----------------------|-------------------|



  Verso Riff 1                                                                
                If  you kill    me,               it's self- de fense,        
  E             E   E   T    T  E.  Q.        E   E    E     S  E.    Q.      
---------------14--14--12----L-14----------|-----17---19----17-19------------|
-------------------------------------------|---------------------------------|
-------------------------------------------|---------------------------------|
-------------------------------------------|---------------------------------|
-------------------------------------------|---------------------------------|
-------------------------------------------|---------------------------------|


        If  I   kill    you,  then I  call          it  ven    geance        
  Q     E   E   T    T  Q     S    S  S       Q     E   T   T  Q     S Q     
-------14--14--14----L-12----12---14-12---|---L----17--14---L-12------------|
------------------------------------------|---------------------------------|
------------------------------------------|---------------------------------|
------------------------------------------|---------------------------------|
------------------------------------------|---------------------------------|
------------------------------------------|---------------------------------|


        Spit    in your eye,              I   will de    fy,         
  Q     T    T  S  S    E.  Q.        E   E   E    T  T  E.  Q.      
-------17----L-14-12---12----------|-----17--19---17--L-19----------|
-----------------------------------|--------------------------------|
-----------------------------------|--------------------------------|
-----------------------------------|--------------------------------|
-----------------------------------|--------------------------------|
-----------------------------------|--------------------------------|


      you'll be  a     fraid    when I   call          out your    name.        
  E   E      E   T  T  E.   E   S    E   S       Q     E   T    T  Q    S Q     
-----14-----14--12--L-14-------14---12--14---|---L----17--14----L-12-----------|
---------------------------------------------|---------------------------------|
---------------------------------------------|---------------------------------|
---------------------------------------------|---------------------------------|
---------------------------------------------|---------------------------------|
---------------------------------------------|---------------------------------|


   Verso Riff 2                                                         
   Run!                      Fight!                      To    breathe! 
   Q           H        E.   S         S H.           S  T  T  S        
--17------------------------17-----|---L----------------15--L-17-------|
-----------------------------------|-----------------------------------|
-----------------------------------|-----------------------------------|
-----------------------------------|-----------------------------------|
-----------------------------------|-----------------------------------|
-----------------------------------|-----------------------------------|


                  It's go nna be    tough!                        
   S H        E   S    S  S   T  T  S         S E.  H.            
---L-------------15---15-15--15--L-17-----|---L------------------|
------------------------------------------|----------------------|
------------------------------------------|----------------------|
------------------------------------------|----------------------|
------------------------------------------|----------------------|
------------------------------------------|----------------------|


  Pre-Coro                                                                 
            Now you    see me,               and now you    don't          
  Q         E   T   T  E   E  S Q       E.   S   E   T   T  E    E.  Q     
-----------19--19---L-17--19---------|------19--19--17---L-19-------------|
-------------------------------------|------------------------------------|
-------------------------------------|------------------------------------|
-------------------------------------|------------------------------------|
-------------------------------------|------------------------------------|
-------------------------------------|------------------------------------|


        Break the    walls,              I'm  co ming out.           
  Q     E     T   T  Q     S Q       E   E.   S  E    Q        S E   
-------14----14---L-14~-----------|-----19---17-19---19----|---L----|
----------------------------------|------------------------|--------|
----------------------------------|------------------------|--------|
----------------------------------|------------------------|--------|
----------------------------------|------------------------|--------|
----------------------------------|------------------------|--------|


  Coro                                                        
        Not a   pri so ne  er           I'm a   free ma  an,  
  Q     E   E   E   S  E   E.     Q     E   E   E.   E   E.   
-------16--16--16--16-14--12---|-------14--12--16---14--12---|
-------------------------------|-----------------------------|
-------------------------------|-----------------------------|
-------------------------------|-----------------------------|
-------------------------------|-----------------------------|
-------------------------------|-----------------------------|


        And my  blood is  my  own              now.      
  Q     E   E   E.    E   E   S      H         H         
-------16--16--16----14--12------|----------------------|
-----------------------------14--|---L--------12--------|
---------------------------------|----------------------|
---------------------------------|----------------------|
---------------------------------|----------------------|
---------------------------------|----------------------|


        Don't ca   aa  re,          where    the past wa  as,  
  Q     Q     E.   E   E.     Q     S     S  E   E.   E   E.   
-------16----16---14--12---|-------14-----L-12--16---14--12---|
---------------------------|----------------------------------|
---------------------------|----------------------------------|
---------------------------|----------------------------------|
---------------------------|----------------------------------|
---------------------------|----------------------------------|


          I   know where    I'm go              ing.      
  Q.      E   E.   S     S  E   S     H         H         
---------16--16---17-----L-19--16-|---L--------14--------|
----------------------------------|----------------------|
----------------------------------|----------------------|
----------------------------------|----------------------|
----------------------------------|----------------------|
----------------------------------|----------------------|


      I'm not a   num  be  er,          I'm a   free ma  an,  
  E   E   E   E   E.   E   E.     Q     E   E   E.   E   E.   
-----16--16--16--16---14--12---|-------14--12--16---14--12---|
-------------------------------|-----------------------------|
-------------------------------|-----------------------------|
-------------------------------|-----------------------------|
-------------------------------|-----------------------------|
-------------------------------|-----------------------------|


        Live my  life where I   want              to         
  Q     E    E   E.   E     E   S       H         H          
-------16---16--16---14----12--21---|---L--------19~--------|
-------------------------------14---|---L--------12---------|
------------------------------------|-----------------------|
------------------------------------|-----------------------|
------------------------------------|-----------------------|
------------------------------------|-----------------------|


      You'd be  tter scratch me  ee           from    your black book,     
  E   E     E   E    E.      E   E.     Q     S    S  E    E.    E    E.   
-----16----16--16---16------14--12---|-------14----L-12---16----14--------|
-------------------------------------|------------------------------------|
-------------------------------------|------------------------------------|
-------------------------------------|------------------------------------|
-------------------------------------|------------------------------------|
-------------------------------------|------------------------------------|


        'cause I'll run  rings a   round              you.       
  Q     E      E    E.   E     E   S        H         H          
-------16-----16---16---17----19--21----|---L--------19~--------|
----------------------------------------|-----------------------|
----------------------------------------|-----------------------|
----------------------------------------|-----------------------|
----------------------------------------|-----------------------|
----------------------------------------|-----------------------|


  Coro                                                        
        Not a   pri so ne  er           I'm a   free ma  an,  
  Q     E   E   E   S  E   E.     Q     E   E   E.   E   E.   
-------16--16--16--16-14--12---|-------14--12--16---14--12---|
-------------------------------|-----------------------------|
-------------------------------|-----------------------------|
-------------------------------|-----------------------------|
-------------------------------|-----------------------------|
-------------------------------|-----------------------------|


        And my  blood is  my  own              now.      
  Q     E   E   E.    E   E   S      H         H         
-------16--16--16----14--12------|----------------------|
-----------------------------14--|---L--------12--------|
---------------------------------|----------------------|
---------------------------------|----------------------|
---------------------------------|----------------------|
---------------------------------|----------------------|


        Don't ca   aa  re,          where    the past wa  as,  
  Q     Q     E.   E   E.     Q     S     S  E   E.   E   E.   
-------16----16---14--12---|-------14-----L-12--16---14--12---|
---------------------------|----------------------------------|
---------------------------|----------------------------------|
---------------------------|----------------------------------|
---------------------------|----------------------------------|
---------------------------|----------------------------------|


          I   know where    I'm go              ing.       
  Q.      E   E.   S     S  E   S     H         H          
---------16--16---17-----L-19--16-|---L--------14~--------|
----------------------------------|-----------------------|
----------------------------------|-----------------------|
----------------------------------|-----------------------|
----------------------------------|-----------------------|
----------------------------------|-----------------------|


        Not a   num  be  er,          I'm a   free ma  an,  
  Q     E   E   E.   E   E.     Q     E   E   E.   E   E.   
-------16--16--16---14--12---|-------14--12--16---14--12---|
-----------------------------|-----------------------------|
-----------------------------|-----------------------------|
-----------------------------|-----------------------------|
-----------------------------|-----------------------------|
-----------------------------|-----------------------------|


        Live my  life where I   want              to         
  Q     E    E   E.   E     E   S       H         H          
-------16---16--16---14----12--21---|---L--------19~--------|
-------------------------------14---|---L--------12---------|
------------------------------------|-----------------------|
------------------------------------|-----------------------|
------------------------------------|-----------------------|
------------------------------------|-----------------------|


      You'd be  tter scratch me  ee           from    your black book,     
  E   E     E   E    E.      E   E.     Q     S    S  E    E.    E    E.   
-----16----16--16---16------14--12---|-------14----L-12---16----14--------|
-------------------------------------|------------------------------------|
-------------------------------------|------------------------------------|
-------------------------------------|------------------------------------|
-------------------------------------|------------------------------------|
-------------------------------------|------------------------------------|


        'cause I'll run  rings a   round              you.       
  Q     E      E    E.   E     E   S        H         H          
-------16-----16---16---17----19--21----|---L--------19~--------|
----------------------------------------|-----------------------|
----------------------------------------|-----------------------|
----------------------------------------|-----------------------|
----------------------------------------|-----------------------|
----------------------------------------|-----------------------|


  Outro                                                        
         Not a   pri so ne  er           I'm a   free ma  an,  
  Q      E   E   E   S  E   E.     Q     E   E   E.   E   E.   
--------16--16--16--16-14--12---|-------14--12--16---14--12---|
--------------------------------|-----------------------------|
--------------------------------|-----------------------------|
--------------------------------|-----------------------------|
--------------------------------|-----------------------------|
--------------------------------|-----------------------------|


        And my  blood is  my  own              now.      
  Q     E   E   E.    E   E   S      H         H         
-------16--16--16----14--12------|----------------------|
-----------------------------14--|---L--------12--------|
---------------------------------|----------------------|
---------------------------------|----------------------|
---------------------------------|----------------------|
---------------------------------|----------------------|


        Don't ca   aa  re,          where    the past wa  as,  
  Q     Q     E.   E   E.     Q     S     S  E   E.   E   E.   
-------16----16---14--12---|-------14-----L-12--16---14--12---|
---------------------------|----------------------------------|
---------------------------|----------------------------------|
---------------------------|----------------------------------|
---------------------------|----------------------------------|
---------------------------|----------------------------------|


          I   know where    I'm go              ing.                            
  Q.      E   E.   S     S  E   S     H         H             W                 
---------16--16---17-----L-19--21-|---L--------19~--------|---L----------------|
----------------------------------|-----------------------|--------------------|
----------------------------------|-----------------------|--------------------|
----------------------------------|-----------------------|--------------------|
----------------------------------|-----------------------|--------------------|
----------------------------------|-----------------------|--------------------|


  W                   W                  
-------------------|-------------------||
-------------------|-------------------||
-------------------|-------------------||
-------------------|-------------------||
-------------------|-------------------||
-------------------|-------------------||




Chorus:
                                 
Coro: Adrian

   Coro                          
   Q     E   E   E   S  E   E.   
|-------12--12--12--12-11-------|
|--------------------------12---|
|-------------------------------|
|-------------------------------|
|-------------------------------|
|-------------------------------|


  Q     E   E   E.   E   E.     Q     E   E   E.   E   E   S  
-------11------12---11-------|-------12--12--16---19--19--21-|
-----------12-----------12---|-------------------------------|
-----------------------------|-------------------------------|
-----------------------------|-------------------------------|
-----------------------------|-------------------------------|
-----------------------------|-------------------------------|


   H         H           Q     Q     E.   E   E.   
---L--------19--------|-------12----12---11-------|
----------------------|----------------------12---|
----------------------|---------------------------|
----------------------|---------------------------|
----------------------|---------------------------|
----------------------|---------------------------|


  Q     S  S  E   E.   E   E.     Q.      E   E.   S  S  E   S  
-------11--L-----12---11-------|---------12--12---14--L-16-----|
-------------12-----------12---|----------------------------17-|
-------------------------------|-------------------------------|
-------------------------------|-------------------------------|
-------------------------------|-------------------------------|
-------------------------------|-------------------------------|


   H         H           W                   W                 
----------------------|-------------------|-------------------|
---L--------16--------|-------------------|-------------------|
----------------------|-------------------|-------------------|
----------------------|-------------------|-------------------|
----------------------|-------------------|-------------------|
----------------------|-------------------|-------------------|




Duration Legend
---------------
W - whole
H - half
Q - quarter
E - 8th
S - 16th
T - 32nd
X - 64th
. - note dotted
|-n-|  - n-tuplets


Tablature Legend
----------------
L - tied note
x - dead note
g - grace note
(n) - ghost note
> - accentuded note
NH - natural harmonic
AH - artificial harmonic
TH - tapped harmonic
SH - semi harmonic
PH - pitch harmonic
h - hammer on
p - pull off
b - bend
br - bendRelease
pb - preBend
pbr - preBendRelease
brb - bendReleaseBend
\n/ - tremolo bar dip
\n - tremolo bar dive
-/n - tremolo bar Release up
/n\ - tremolo bar inverted dip
/n - tremolo bar return
-\n - tremolo bar Release down
S - shift slide
s - legato slide
/ -  slide into from below or out of upwards
\ -  slide into from above or out of downwards
~ - vibrato
W - wide vibrato
tr - trill
TP - tremolo picking
T - tapping
S - slap
P - pop
< - fade in
^ - brush up
v - brush down

            
            
Suggest correction
Creating personal tab
Creating personal tab
You can edit any tab online and save it as your Personal.

You can edit, replace or remove any tab part or add personal notes – all changes will be seen only by you.

Personal tabs can be accessed anytime from any device, even offline.
Learn more »
comments
print report bad tab
guest
You may want to rate the tab now too:
select rating
Wanna post a correction for this tab? Suggest correction