Oops, an error
Loading. Please wait.

The Prophecy Tab

version 1
version 1

Whole song

9,165 views 36 this week
no commentswrite comment
1 2 3 4 5
accurate
x 3
add to favorites
launch autoscroll
font size
0
reset
how to read this tab
guitar tuner
Tab Pro tools
  • play this tab
  • loop segment
  • change instrument
  • show fretboard
  • metronome
×
Best way to learn
"The Prophecy"
Autoscroll
slow
fast
+/-
esc
set tempo
stop
Contributor
i did not create this tab myself, i just saw that there are no guitar tabs for this
sweet song. give props to Andrew Zara for making it.

intro:

 Am add9        Fadd9                     G7             Am
e:-----7--------7----3--|--3------3------|-----3------3---5--|
B:-------10----------6--|----6------6----|-------6--------5--|
G:--9-------9--------5--|------5------5--|--4------4------5--|
D:----------------------|----------------|-------------------|
A:----------------------|----------------|-------------------|
E:----------------------|----------------|-------------------|

                          intro riff2
                          4x
e:--5---------5--------|-----------12--13------12-------------------|
B:-----5---------5-----|--15b(17)----------15------13--15--let-ring-|
G:--------5---------5--|--------------------------------------------|
D:---------------------|--------------------------------------------|
A:---------------------|--------------------------------------------|
E:---------------------|--------------------------------------------|


e:-----------10--12------12-------------------|
B:--13b(15)----------13------12--10--let-ring-|
G:--------------------------------------------|
D:--------------------------------------------|
A:--------------------------------------------|
E:--------------------------------------------|


    RiffA 2x
    bass plays D
e:-----------------------------------------------|----------------------|
B:-----------------------------------------------|----------------------|
G:-----------------------------------------------|----------------------|
D:------------------5----------------------------|--------------5-----5-|
A:-(0)--5--5--7--8-----8--7--5--5--7--8--7-------|--5--5--7--8-----8----|
E:------------------------------------------8--5-|----------------------|


                          riff1 (between verse riffs)
                          A5
e:----------------------|-----------------|-----------------|
B:----------------------|-----------------|-----------------|
G:----------------------|---2-----2-------|-----------------|
D:-----------------5----|---2-----2-------|-----------------|
A:-5/7--5--3--5/7-----7-|---0-----0----0--|--2h3--0--2---3--|
E:----------------------|-----------------|-----------------|

Verse riffA:

D5    C5    Gm    Bb5

D5    C5    Gm    Bb

C5    E5     D5     B5

C5    D5     E5     D5

B5    C5     D5


riff 1:


Verse riffB:

Eb5   Ab5   Db5   Bb5

Eb5   Db5   Ab5   Bb5

Eb5   Ab5   Db5   Bb5

Db5   Bb5


  riffC
  4x
e:-------------------------------------------------------------|
B:-15----------------------------------------------------------|
G:-----17--16--14--16--14--16----------41--16------------------|
D:-----------------------------17--17----------17--17--16--17--|
A:-------------------------------------------------------------|
E:-------------------------------------------------------------|


   RiffD
e:---------------------------------------------------------------------------|
B:---------------------------------------------------------------------------|
G:-----9--10--9--------------------------9--10--9--12--10------------------9-|
D:-12------------12--11--12--12------12--------------------------------12----|
A:-------------------------------12------------------------12--12--12--------|
E:---------------------------------------------------------------------------|

e:--------------------------------------------------------------------------|
B:--------------------------------------------------------------------------|
G:-10--12--10--12--12b(14)rb12--10------10p9-10p9---------------------------|
D:----------------------------------12------------12--11p9--11--12--12------|
A:----------------------------------------------------------------------12--|
E:--------------------------------------------------------------------------|


Solo

                         slow bend to A
e:------------------------------------------------------|
B:18b(20)rb(18)-------18------------------18--trembar---|
G:----------------14------------------------------------|
D:------------------------------------------------------|
A:------------------------------------------------------|
E:------------------------------------------------------|

e:------------------------------------------|
B:----------15--18-----------15--18--17p15--|
G:--17b(19)---------17b(19)-----------------|
D:------------------------------------------|
A:------------------------------------------|
E:------------------------------------------|

e:--------------------------------------------|
B:--17p15--13h15--13h15p13-/11--13--11h13p11--|
G:--------------------------------------------|
D:--------------------------------------------|
A:--------------------------------------------|
E:--------------------------------------------|

e:------------------------------------------------|
B:--10h13p11--10h11p10------------------13--------|
G:----------------------12p10--/9h10p9--14--trem--|
D:------------------------------------------------|
A:------------------------------------------------|
E:------------------------------------------------|

e:---------------------------------------------------------------------------|
B:--20b(22)--20b(22)--rb(20)--18--17--------------17--20p17------------------|
G:------------------------------------17------17-------------17------17/16---|
D:----------------------------------------19---------------------19--------19|
A:---------------------------------------------------------------------------|
E:---------------------------------------------------------------------------|

e:---------------------------------------------------------------------------|
B:-----------------------------------------12--12------12h-13h-14p-13p-12----|
G:-------------------------------------14----------14----------------------14|
D:----17p-15h-17p-15h-17p-15-/14---14----------------------------------------|
A:---------------------------------------------------------------------------|
E:---------------------------------------------------------------------------|

e:---------------12p-13p-15-/20p-17h-20p-17h-20p-17h-20p-17h-20p-17h-20p-17h-|
B:--12p-13p-14---------------------------------------------------------------|
G:---------------------------------------------------------------------------|
D:---------------------------------------------------------------------------|
A:---------------------------------------------------------------------------|
E:---------------------------------------------------------------------------|

e:20p-17h-20p-17h--20b(22)|
B:------------------------|
G:------------------------|
D:------------------------|
A:------------------------|
E:------------------------|


  RiffE  12x
e:-------------------------------------|
B:-------------------------------------|
G:---------0--2---------------0--------|
D:-0--0h2--------3--0--0h2h3-----3--2--|
A:-------------------------------------|
E:-------------------------------------|

  acoustic riff
                                                                 fourtimes
e:------------5--5-----------------------------------------------------------|
B:---5--6--8--------8--6--5----8----6--5--6----5h-6p-5-----------------------|
G:7-----------------------------------------------------7--6-----------------|
D:---------------------------------------------------------------------------|
A:---------------------------------------------------------------------------|
E:---------------------------------------------------------------------------|

e:5--6--6/8--8--8--6--10--10/13--10\8--10--8h10p8---6--8--6h8p-6\5--6--5h6p5-|
B:---------------------------------------------------------------------------|
G:---------------------------------------------------------------------------|
D:---------------------------------------------------------------------------|
A:---------------------------------------------------------------------------|
E:---------------------------------------------------------------------------|

e:-/3--5--3h5p3--1--0---1|
B:----------------------3|
G:----------------------2|
D:----------------------0|
A:-----------------------|
E:-----------------------|
comments
We did not receive enough feedback on this tab! Please rate:
print report bad tab
1 2 3 4 5
I want to post or [tab]
guest
You may want to rate the tab now too:
select rating
Please do not post tabs as comments. Select "correction" instead!