Oops, an error
Loading. Please wait.

The Reincarnation Of Benjamin Breeg tab

version 1
version 1

Whole song

50,212 views 24 this week
16 commentsread comments
1 2 3 4 5
x 40
add to favorites
×
Save as Personal and add changes to this tab that will be seen only by you. Learn more ›
×
You can save this tab as Personal to edit and correct it or add notes. All changes will be seen only by you. Learn more »
launch autoscroll
font size
0
reset
how to read this tab
guitar tuner
edit
Autoscroll
slow
fast
+/-
esc
set tempo
stop
Author
Difficulty
I submit it, because it isn't already, transcribed by my mate from the
forums, the official/unoficcial home of maidenfans!

The Reincarnation Of Benjamin Breeg (Dave Murray/Steve Harris)
 from the single The Reincarnation Of Benjamin Breeg (2006) EMI Records

Transcribed by Jefferson Camargo (JEFFMETAL) E-mail: jeffargus@gmail.com

 0:00/0:50
 4/4
  Gtr.I,II (Adrian, Janick) chords echoes 1 time each speakers
e|-7-----------|---------------|-7-------------|----------------|
B|-8-----------|-3-------------|-8-------------|-5--------------|
G|-9-----------|-5-------------|-9-------------|-7--------------|
D|-9-----------|-5-------------|-9-------------|-7--------------|
A|-7-----------|-3-------------|-7-------------|-5--------------|
E|-0-----------|---------------|-0-------------|----------------|
                                               chord echoes one more measure
e|-7-----------|---------------|-7-------------|----------------|
B|-8-----------|-3-------------|-8-------------|----------------|
G|-9-----------|-5-------------|-9-------------|----------------|
D|-9-----------|-5-------------|-9-------------|----------------|
A|-7-----------|-3-------------|-7-------------|----------------|
E|-0-----------|---------------|-0-------------|----------------|

  Gtr.III (Dave Murray)
  1st time                       2nd time                   3rd time
e|-------------|---------------|--------------------------|-------------|-----------|---------|
B|-------------|---------------|--------------------------|-------------|-----------|---------|
G|-7h9p7-------|---------------|-7h9p7--------------------|-7h9p7-------|-----------|---------|
D|-------9/-5--|-5\7--------/--|-------9/-5--5\7\9/7--7/5-|-------9-5-7-|-4-5-7-7\9-|-2-------|
A|-------------|---------------|--------------------------|-------------|-----------|-2-------|
E|-------------|---------------|--------------------------|-------------|-----------|-0-------|

  Gtr.I,II (Adrian, Janick) chords echoes 1 time each speakers
e|-7-----------|-3-------------|-7-------------|-5--------------|
B|-8-----------|-3-------------|-8-------------|-5--------------|
G|-9-----------|-5-------------|-9-------------|-7--------------|
D|-9-----------|-5-------------|-9-------------|-7--------------|
A|-7-----------|-3-------------|-7-------------|-5--------------|
E|-0-----------|---------------|-0-------------|----------------|
                                               chord echoes one more measure
e|-7-----------|---------------|-7-------------|----------------|
B|-8-----------|-3-------------|-8-------------|----------------|
G|-9-----------|-5-------------|-9-------------|----------------|
D|-9-----------|-5-------------|-9-------------|----------------|
A|-7-----------|-3-------------|-7-------------|----------------|
E|-0-----------|---------------|-0-------------|----------------|

  Gtr.III (Dave Murray)
  1st time                       2nd time                   3rd time
e|-------------|---------------|--------------------------|-------------|------------|---------|
B|-------------|---------------|--------------------------|-------------|------------|---------|
G|-7h9p7-------|---------------|-7h9p7--------------------|-7h9p7-------|------------|---------|
D|-------9/-5--|-5\7--------/--|-------9/-5--5\7\9/7--7/5-|-------9/--5-|-5\7--4h5p4-|-5/4-----|
A|-------------|---------------|--------------------------|-------------|------------|---------|
E|-------------|---------------|--------------------------|-------------|------------|---------|


0:53/1:57

  Gtr.I                                      Play 6x
e|-------------|-------------|-------------||------------------|
B|-------------|-------------|-------------||------------------|
G|---------9---|---------9---|---------9---||------------------|
D|-----9-----9-|-----9-----9-|-----9-----9-||-----9---10---7---|
A|---7---7-----|---7---7-----|---7---7-----||---7---7----7---7-|
E|-0-----------|-0-----------|-0-----------||-0----------------|
 |
 |Gtr.II,III                                 Play 6x
e|-------------|-------------|-------------||------------------|
B|---------8---|---------8---|---------8---||------------------|
G|-----9-----9-|-----9-----9-|-----9-----9-||------------------|
D|-------9-----|-------9-----|-------9-----||-----9---10---7---|
A|---7---------|---7---------|---7---------||---7---7----7---7-|
E|-0-----------|-0-----------|-0-----------||-0----------------|

  Gtr.I,II,III
e|-----------------|-----------------|-----------------|
B|-----------------|-----------------|-----------------|
G|-----2---4---2---|-----2---4---2---|-----2---4---2---|
D|---2---2---2---2-|---2---2---2---2-|---2---2---2---2-|
A|-4---------------|-5---------------|-3---------------|
E|-----------------|-----------------|-----------------|

  Gtr.I,II,III Play 4x
e|------------------|
B|------------------|
G|------------------|
D|-----9---10---7---|
A|---7---7----7---7-|
E|-0----------------|

e|-----------------|-----------------|-----------------|
B|-----------------|-----------------|-----------------|
G|-----2---4---2---|-----2---4---2---|-----2---4---2---|
D|---2---2---2---2-|---2---2---2---2-|---2---2---2---2-|
A|-4---------------|-5---------------|-3---------------|
E|-----------------|-----------------|-----------------|


  Gtr.I (repeat 'til the end)
e|------------------|
B|------------------|
G|------------------|
D|-----9---10---7---|
A|---7---7----7---7-|
E|-0----------------|
 |
 | Gtr.II
 | PM_ _ _ _ _ _ _ _ _ _ _ _ _ _ _ _ _ _ _ _ _ _ _ _ _   Play 6x
e|------------|------------|------------|------------| |---------------|
B|-<12>-13-10-|-<12>-13-10-|-<12>-13-10-|-<12>-13-10-| |---------------|
G|------------|------------|------------|------------| |-<7>-<12>------|
D|------------|------------|------------|------------| |----------<12>-|
A|------------|------------|------------|------------| |---------------|
E|------------|------------|------------|------------| |---------------|
 |
 |Gtr.III
e|------------|------------|------------|------------| |---------------|
B|-<12>-13-10-|-<12>-13-10-|-<12>-13-10-|-<12>-13-10-| |---------------|
G|------------|------------|------------|------------| |-7----9----7---|
D|------------|------------|------------|------------| |-9---10----9---|
A|------------|------------|------------|------------| |---------------|
E|------------|------------|------------|------------| |---------------|
 |

1:58

  Gtr.I,II,III (Main riff - 4x)
e|-----------------------|
B|-----------------------|
G|----------4-5----------|
D|----------4-5--4\5/4-2-|
A|-\11/----------4\5/4-2-|
E|------0-0--------------|


  Verse
e|-----------|---------------|---------------|--------------|
B|-----------|---------------|---------------|--------------|
G|-----------|---------------|---------------|-2------------|
D|-2---------|---------------|-5-------------|-2------------|
A|-2---------|-5-------------|-5-------------|-0------------|
E|-0---------|-2-------------|-3-------------|--------------|

Repeat main riff (2x)
Repeat verse
Repeat Main riff (2x)

  Chorus (2x)
e|------------|--------|------------|---------|-----------|----------|-----------|---------|
B|------------|--------|------------|---------|-----------|----------|-----------|---------|
G|------------|--------|------------|---------|-----------|----------|-----------|---------|
D|-2----2-4-5-|-5------|-2----4-2-4-|-5-------|-2---2-4-5-|-5--------|-2---4-2-4-|-5---7---|
A|-2----2-4-5-|-3--5---|-2----2-0-2-|-3---5---|-2---2-4-5-|-3---5----|-2---2-0-2-|-3---5---|
E|-0----0-2-3-|----2---|-0----------|-----2---|-0---0-2-3-|-----2----|-0---------|---------|


Repeat main riff (4x)
Repeat verse
Repeat Main riff (2x)
Repeat chorus (2x)

                                                   Bridge (4x)
e|--------------------------|---------------------------------|
B|--------------------------|---------------------------------|
G|--------------------------|---------------------------------|
D|--------------------------|-5/4---5-7---5/4-------------5/4-|
A|-2--2-2-2-2-2-2-2-2-2-2-2-|-3/2---3-5---3/2-----5/4-----3/2-|
E|-0--0-0-0-0-0-0-0-0-0-0-0-|-----0-----------0-0-3/2-0-0-----|

e|--------------------------|
B|--------------------------|
G|--------------------------|
D|--------------------------|
A|-2--2-2-2-2-2-2-2-2-2-2-2-|
E|-0--0-0-0-0-0-0-0-0-0-0-0-|


  Gtr.I,II               Rhythm under duet (8X)
e|----------------------|----------------------|
B|----------------------|----------------------|
G|----------------------|----------------------|
D|------------5-5-5-5-5-|-2-2-2-2-2------------|
A|-2-2-2-2-2--3-3-3-3-3-|-0-0-0-0-0--3-3-3-3-3-|
E|-0-0-0-0-0------------|------------1-1-1-1-1-|
 |
 |Gtr.III (Dave alone on even times - 2,4,6,8)
e|---------------------|----------------------|
B|---------------------|--------3-------------|
G|-----------2---------|----4-5----5-4--2---2-|
D|-2---4-5-------------|------------------3---|
A|---------------------|----------------------|
E|---------------------|----------------------|
 |
 |Gtr.IV Janick (only on even times 2,4,6,8)
e|---------------------|----------------------|
B|---------------------|----3-5-6--5-3--------|
G|-----2-4---5---------|----------------5-4-5-|
D|-5-------------------|----------------------|
A|---------------------|----------------------|
E|---------------------|----------------------|
 |
 |Gtr.V Adrian (only on even times - 2,4,6,8)
e|---------------------|----7-8-10-8-7----------|
B|-----7-8--10---------|---------------10----10-|
G|-9-------------------|------------------10----|
D|---------------------|------------------------|
A|---------------------|------------------------|
E|---------------------|------------------------|


e|--------------------------|---------------------------|
B|--------------------------|---------------------------|
G|----------------------9-8-|---------12-11---------9-8-|
D|---------10-9---------7-6-|---------10--9---------7-6-|
A|----------8-7-------------|---------------------------|
E|-0-0-0-0------0-0-0-0-----|-0-0-0-0-------0-0-0-0-----|

  Rhythm under Dave Murray's solo
e|-----------------|-----------------|---------------|---------------|
B|-----------------|-----------------|---------------|---------------|
G|-----------------|-----------------|---------------|---------------|
D|-----------------|-------------4-5-|---------------|------5--------|
A|-2-2-2-2-2-2-2-2-|-2-2-2-2-2-2-2-3-|---------------|-5----5--------|
E|-0-0-0-0-0-0-0-0-|-0-0-0-0-0-0-----|---------------|-2----3--------|

e|-----------------|-----------------|---------------|---------------|
B|-----------------|-----------------|---------------|---------------|
G|-----------------|-----------------|---------------|---------------|
D|-----------------|-------------4-5-|---------------|------7--------|
A|-2-2-2-2-2-2-2-2-|-2-2-2-2-2-2-2-3-|---------------|-5----5--------|
E|-0-0-0-0-0-0-0-0-|-0-0-0-0-0-0-----|---------------|-2-------------|


Repeat chorus (2x)
Repeat main riff (4x)

                                               Play (2x)
e|--------------------------|---------------------------|
B|--------------------------|---------------------------|
G|----------------------9-8-|---------12-11---------9-8-|
D|---------10-9---------7-6-|---------10--9---------7-6-|
A|----------8-7-------------|---------------------------|
E|-0-0-0-0------0-0-0-0-----|-0-0-0-0-------0-0-0-0-----|

  Gtr.I,II      Play (4x)
e|------------------|
B|------------------|
G|------------------|
D|-----9---10---7---|
A|---7---7----7---7-|
E|-0----------------|
 |
 |Gtr.III
e|----------------|
B|---------8------|
G|-----7-------7--|
D|----------------|
A|---7------------|
E|-0--------------|

Lyrics

The Reincarnation Of Benjamin Breeg (Murray/Harris)

Let me tell you 'bout my life
Let me tell you 'bout my dreams
Let me tell you 'bout the things that happened
Always real to me

Let me tell you of my hope
Of my need to reach to the sky
Let me take you on an awkward journey
Let me tell you why

Let me tell you why

Why should these curses be laid upon me?
I won't be forgiven 'til I can break free
What did I do to deserve all this guilt?
Paid for my sins, for the sale of my soul

Demons are trapped all inside of my head
My hopes have gone, I reach for heaven from hell
My sins are many, my guilt is too heavy
The pressure of knowing, of hiding what I know

I'm able to see things, things I don't want to see
The lives of a thousand souls, weigh heavy down on me

I know they're crying for help, reaching out
The burden of them will take me down as well

The sin of a thousand souls not died in vain
Reincarnates to let me live again

Chorus: (x2)
Someone to save me
Something to save me from myself
To bring salvation
To exorcise this hell

2nd Chorus:
Someone to save me
Something to save me from my hell
Our destination
Awake from this nightmare

Chorus:
Someone to save me
Something to save me from myself
To bring salvation
To exorcise this hell

            
            
Suggest correction
Creating personal tab
Creating personal tab
You can edit any tab online and save it as your Personal.

You can edit, replace or remove any tab part or add personal notes – all changes will be seen only by you.

Personal tabs can be accessed anytime from any device, even offline.
Learn more »
comments
print report bad tab
16 comments total. Showing first comments.
0 reply
saberrocks 1,167 Jul 20, 2006 05:21 AM

man this one is awesome!
it's completely right to me

0 reply
#_of_the_beast 40 Jul 20, 2006 08:50 AM

Very nice, you tab this damn fast two, the song was just release 3 days ago

+1 reply
toolfan_121 112 Jul 20, 2006 11:50 AM

Wow. That was fast. I just found out about this song today, and there is already a tab that sounds right. good job.

guest
You may want to rate the tab now too:
select rating
Wanna post a correction for this tab? Suggest correction