Oops, an error
Loading. Please wait.

The Talisman bass

version 1
version 1

Whole song

Interactive

656 views 3 this week
1 commentread comment
1 2 3 4 5
1 last vote to show rating
add to favorites
×
Save as Personal and add changes to this tab that will be seen only by you. Learn more ›
×
You can save this tab as Personal to edit and correct it or add notes. All changes will be seen only by you. Learn more »
launch autoscroll
font size
0
reset
guitar tuner
backing track
0:00
0:00
edit
Autoscroll
slow
fast
+/-
esc
set tempo
stop
Author
Difficulty
                             The Talisman - Iron Maiden
-------------------------------------------------------------------------------
Tabbed by: killjoybassist
E-mail: killjoybassist@gmail.com

Tuning: Standard

G|----------7-------------5----------------------------------------------|
D|---7---7---------7---7-------------------------------------------------|   x4
A|-5---5--5------5---5--5------------------------------------------------|
E|-----------------------------------------------------------------------|

G|----------7-------------3----------------------------------------------|
D|---7---7---------7---7-------------------------------------------------|
A|-5---5--5------5---5--5------------------------------------------------|
E|-----------------------------------------------------------------------|

G|----------7-----------------------------------------------------------|
D|---7---7---------7---7------------------------------------------------|
A|-5---5--5------5---5--3-5---------------------------------------------|
E|----------------------------------------------------------------------|

G|--------------------------------------------------------------|
D|--------------------------------------------------------------|  x13
A|--5---5--7---7-10---10--8---8---------------------------------|
E|----5------5------10-----10-----------------------------------|  10's not 1's and 0's

G|-----------------------------------------------------------------------|
D|--------------7~-------------------------------------------------------|
A|-5---5--3---3-5~-------------------------------------------------------|
E|---5------5------------------------------------------------------------|

G|--------------------------------------------5--5----------|
D|--------------------------------------------3--2----------|   x4
A|-5-55-5-5-5-55-6-66-6-6-6-66-3-33-3-3-3-33----------------|
E|----------------------------------------------------------|

G|--------------------------------------------------------|
D|--------------------------------------------------------|
A|-5-55-5-5-5-55-6-66-6-6-6-66-3-33-3-3-3-33--------------|
E|--------------------------------------------1--3--------|

G|-----------------------------5----------------------------|
D|-7-------------3-------------3-33-3-3-3-33-5--------------|  x2
A|-5-55-5-5-5-55-1-11-1-1-1-11---------------3-33-3-3-3-33--|
E|----------------------------------------------------------|

G|--------------------------------------------5--5----------|
D|--------------------------------------------3--2----------|   x3
A|-5-55-5-5-5-55-6-66-6-6-6-66-3-33-3-3-3-33----------------|
E|----------------------------------------------------------|

G|--------------------------------------------------------|
D|--------------------------------------------------------|
A|-5-55-5-5-5-55-6-66-6-6-6-66-3-33-3-3-3-33--------------|
E|--------------------------------------------1--3--------|

G|-----------------------------5----------------------------|
D|-7-------------3-------------3-33-3-3-3-33-5--------------|   x2
A|-5-55-5-5-5-55-1-11-1-1-1-11---------------3-33-3-3-3-33--|
E|----------------------------------------------------------|

G|--------------------------------------------------------------|
D|--------------------------------------------------------------|
A|5-555-555-555-551-111-111-111-11------------------0-000-0-000-|
E|---------------------------------3-333-333-333-33-------------|

G|--------------------------------------------------------------------|
D|--------------------------------------------------777-777-777-7-5---|
A|5-555-555-555-551-111-111-111-11----------------------------------7-|
E|---------------------------------3-333-333-333-33-------------------|

G|--------------------------------------------5--5----------|
D|--------------------------------------------3--2----------|   x3
A|-5-55-5-5-5-55-6-66-6-6-6-66-3-33-3-3-3-33----------------|
E|----------------------------------------------------------|

G|--------------------------------------------------------|
D|--------------------------------------------------------|
A|-5-55-5-5-5-55-6-66-6-6-6-66-3-33-3-3-3-33--------------|
E|--------------------------------------------1--3--------|

G|-----------------------------5----------------------------|
D|-7-------------3-------------3-33-3-3-3-33-5--------------|   x2
A|-5-55-5-5-5-55-1-11-1-1-1-11---------------3-33-3-3-3-33--|
E|----------------------------------------------------------|

G|--------------------------------------------------------------|
D|--------------------------------------------------------------|
A|5-555-555-555-551-111-111-111-11------------------0-000-0-000-|
E|---------------------------------3-333-333-333-33-------------|

G|--------------------------------------------------------------------|
D|--------------------------------------------------777-777-777-7-7-7-|
A|5-555-555-555-551-111-111-111-11------------------------------------|
E|---------------------------------3-333-333-333-33-------------------|

G|----------------------------------------------------------------|
D|----------------------------------------------------------------|   x3
A|-0000--1-11--3-33--5-5-3h5--------------------------------------|
E|----------------------------------------------------------------|

G|----------------------------------------------------------------|
D|----------------------------------------------------------------|
A|-0000--1-11--3-33--5-5------------------------------------------|
E|----------------------------------------------------------------|

G|--------------------------------------------------7----------------|
D|-7-----------------10----------------------5------5-555-555-555-55-|   x4
A|-5-555-555-555-558-888-888-888-883-333-333-333-33------------------|
E|-------------------------------------------------------------------|

G|----------------------------------------------------------------|
D|----------------------------------------------------------------|   x3
A|-0000--1-11--3-33--5-5-3h5--------------------------------------|
E|----------------------------------------------------------------|

G|----------------------------------------------------------------|
D|----------------------------------------------------------------|
A|-0000--1-11--3-33--5-5------------------------------------------|
E|----------------------------------------------------------------|

G|--------------------------------------------------7----------------|
D|-7-----------------10----------------------5------5-555-555-555-55-|   x4
A|-5-555-555-555-558-888-888-888-883-333-333-333-33------------------|
E|-------------------------------------------------------------------|

G|------------------------------------------------------------------|
D|------------------------------------------------------------------|   x4
A|------------------------------------------------------------------|
E|-0~---*0*--33-0~---*0*--5-3-0-------------------------------------|

G|---------------------------------------------------------------|
D|---------------------------------------------------------------|   x4
A|---------------------------------------------------------------|
E|-0-0-00-0-3-03-0-0-00-0-503------------------------------------|

G|------------------------------------------------------------------------|
D|------------------------------------------------------------------------|
A|-5~--7~-----------------------------------------------------------------|
E|------------------------------------------------------------------------|

G|------------------------------------------------------------------|
D|---------------5--------------------------------------------------|   x4
A|-------------5---7---5--------------------------------------------|
E|-0-3-5-3-7-5-------7---5-0-3-5-3----------------------------------|

G|---------------------------------------------------------------------------|
D|---------------------------------------------------------------------------|
A|---------------------------------------------------------------------------|
E|-3~---5~-------------------------------------------------------------------|

G|--------------------------------------------------7----------------|
D|-7-----------------10----------------------5------5-555-555-555-55-|   x4
A|-5-555-555-555-558-888-888-888-883-333-333-333-33------------------|
E|-------------------------------------------------------------------|

G|--------------------------------------------------------------------|
D|--------------------------------------------------777-777-777-7-7-7-|
A|5-555-555-555-551-111-111-111-11------------------------------------|
E|---------------------------------3-333-333-333-33-------------------|

G|--------------------------------------------------------------|
D|--------------------------------------------------------------|
A|5-555-555-555-551-111-111-111-11------------------0-000-0-000-|
E|---------------------------------3-333-333-333-33-------------|

G|----------------------------------------------------------------|
D|----------------------------------------------------------------|   x3
A|-0000--1-11--3-33--5-5-3h5--------------------------------------|
E|----------------------------------------------------------------|

G|----------------------------------------------------------------|
D|----------------------------------------------------------------|
A|-0000--1-11--3-33--5-5------------------------------------------|
E|----------------------------------------------------------------|

G|-----------------------------5----------------------------|
D|-7-------------3-------------3-33-3-3-3-33-5--------------|   x4
A|-5-55-5-5-5-55-1-11-1-1-1-11---------------3-33-3-3-3-33--|
E|----------------------------------------------------------|

G|--------------------------------------------------7----------------|
D|-7-----------------10----------------------5------5-555-555-555-55-|   x8
A|-5-555-555-555-558-888-888-888-883-333-333-333-33------------------|
E|-------------------------------------------------------------------|

G|--------------------------------------------------------------|
D|--------------------------------------------------------------|
A|-5-3-0-7-5-0-8-5-0-7-5-0-5-3-0-555----------------------------|
E|--------------------------------------------------------------|


| /  slide up
| \  slide down
| h  hammer-on
| p  pull-off
| ~  vibrato
| +  harmonic
| x  Mute note
===============================================================================

            
            
Suggest correction
Creating personal tab
Creating personal tab
You can edit any tab online and save it as your Personal.

You can edit, replace or remove any tab part or add personal notes – all changes will be seen only by you.

Personal tabs can be accessed anytime from any device, even offline.
Learn more »
Give kudos to tab author, rate the tab!
1 2 3 4 5
comments
print report bad tab
1 comment total.
0 reply
madhurtvm 10 Oct 02, 2015 11:27 AM

As far as I understood its correct great work man

guest
You may want to rate the tab now too:
select rating
Wanna post a correction for this tab? Suggest correction