Oops, an error
Loading. Please wait.

The Thin Line Between Love And Hate tab

version 2
version 2

Whole song

4,430 views 6 this week
no commentswrite comment
1 2 3 4 5
x 6
add to favorites
×
Save as Personal and add changes to this tab that will be seen only by you. Learn more ›
×
You can save this tab as Personal to edit and correct it or add notes. All changes will be seen only by you. Learn more »
launch autoscroll
font size
0
reset
how to read this tab
guitar tuner
backing track
0:00
0:00
edit
Autoscroll
slow
fast
+/-
esc
set tempo
stop
Author
Please, subscribe and rate! :)


Tuning: Standard

INTRO:(0:00 - 0:26)

e|--------------------|--------------------|
B|--------------------|--------------------|
G|--------------------|--------------------|
D|--------------------|--------------------|
A|------4-4--0-0--2-2-|------4-4--0-0------|
E|-2-2----------------|-2-2------------4-4-|

e|--------------------|--------------------|
B|--------------------|--------------------|
G|--------------------|--------------------|
D|--------------------|--------------------|
A|------2-2-----------|------2-2-----------|
E|-0-0-------3-3--5-5-|-0-0-------3-3--2-2-|

e|--------------------|--------------------|
B|--------------------|--------------------|
G|--------------------|--------------------|
D|------4-4--0-0--2-2-|------4-4--0-0------|
A|-2-2----------------|-2-2------------4-4-|
E|--------------------|--------------------|

e|--------------------|--------------------|
B|--------------------|--------------------|
G|--------------------|--------------------|
D|--------------------|--------------------|
A|------5-5--2-2------|------2-2--5-5------|
E|-3-3------------5-5-|-3-3------------3-3-|

X2

PRE-VERSE (0:27 - 0:38)

e|-----------------------------------------------|
B|-----------------------------------------------|
G|------------------------4---4---4---4----------|
D|-4---4---4---4----------4-4-4-4-4-4-4----------| X2
A|-4-4-4-4-4-4-4----------2-2-2-2-2-2-2--2-3-2-0-|
E|-2-2-2-2-2-2-2--2-3-2-0------------------------|

VERSE 1 (0:39 - 1:00)

e|--------------------------------------|
B|--------------------------------------|
G|------------------4-----4-----4---4-4-|
D|-----4-----4------4-4-4-4-4-4-4-4-4-4-| X3
A|-4-4-4-4-4-4-4-4--2-2-2-2-2-2-2-2-2-2-|
E|-2-2-2-2-2-2-2-2----------------------|

e|---------------|
B|-3--2----------|
G|-2--2--4--2----|
D|-0--0--2--2--2-| REPEAT ALL X2
A|----------0--2-|
E|-------------0-|


CHORUS 1 (1:01 - 1:25)

e|--------------------------------------------------------------|
B|--------------3-3-3-3-3-3-3-3-3-------------------------------|
G|--------------2-2-2-2-2-2-2-2-2--2-2-2-2-2-2------------------| X4
D|-4-----4------0-0-0-0-0-0-0-0-0--2-2-2-2-2-2--2-----2-----2-2-|
A|-4-4-4-4-4-4---------------------0-0-0-0-0-0--2-2-2-2-2-2-2-2-|
E|-2-2-2-2-2-2----------------------------------0-0-0-0-0-0-0-0-|

VERSE 2 (1:26 - 1:47)

e|--------------------------------------|
B|--------------------------------------|
G|------------------4-----4-----4---4-4-|
D|-----4-----4------4-4-4-4-4-4-4-4-4-4-| X3
A|-4-4-4-4-4-4-4-4--2-2-2-2-2-2-2-2-2-2-|
E|-2-2-2-2-2-2-2-2----------------------|

e|---------------|
B|-3--2----------|
G|-2--2--4--2----|
D|-0--0--2--2--2-| REPEAT ALL X2
A|----------0--2-|
E|-------------0-|


CHORUS 2 (1:48 - 2:11)

e|--------------------------------------------------------------|
B|--------------3-3-3-3-3-3-3-3-3-------------------------------|
G|--------------2-2-2-2-2-2-2-2-2--2-2-2-2-2-2------------------| X4
D|-4-----4------0-0-0-0-0-0-0-0-0--2-2-2-2-2-2--2-----2-----2-2-|
A|-4-4-4-4-4-4---------------------0-0-0-0-0-0--2-2-2-2-2-2-2-2-|
E|-2-2-2-2-2-2----------------------------------0-0-0-0-0-0-0-0-|


SOLO 1 (2:12 - 2:22)

e|-14--14--14--14------------------------------------|
B|----------------17-14-17-14------------------------|
G|----------------------------16-14-----14-----16----|
D|----------------------------------16-----16-----16-|
A|---------------------------------------------------|
E|---------------------------------------------------|

e|-----------------------14-14-16-14----14-17-16-14----16--14-16-14----14-14-|
B|-----------------------------------17-------------17--------------17-------|
G|----------------14---------------------------------------------------------|
D|--16-14------16----16------------------------------------------------------|
A|--------16-----------------------------------------------------------------|
E|---------------------------------------------------------------------------|


e|-19-17-16-14----14-14-|
B|-------------14-------|
G|----------------------|
D|----------------------|
A|----------------------|
E|----------------------|

VERSE 3 (2:23 - 2:45)

e|--------------------------------------|
B|--------------------------------------|
G|------------------4-----4-----4---4-4-|
D|-----4-----4------4-4-4-4-4-4-4-4-4-4-| X3
A|-4-4-4-4-4-4-4-4--2-2-2-2-2-2-2-2-2-2-|
E|-2-2-2-2-2-2-2-2----------------------|

e|---------------|
B|-3--2----------|
G|-2--2--4--2----|
D|-0--0--2--2--2-| REPEAT ALL X2
A|----------0--2-|
E|-------------0-|


CHORUS 3 (2:46 - 3:07)

e|--------------------------------------------------------------|
B|--------------3-3-3-3-3-3-3-3-3-------------------------------|
G|--------------2-2-2-2-2-2-2-2-2--2-2-2-2-2-2------------------| X4
D|-4-----4------0-0-0-0-0-0-0-0-0--2-2-2-2-2-2--2-----2-----2-2-|
A|-4-4-4-4-4-4---------------------0-0-0-0-0-0--2-2-2-2-2-2-2-2-|
E|-2-2-2-2-2-2----------------------------------0-0-0-0-0-0-0-0-|


I don't get the Solo 2 (3:08 - 3:20), So we go to the
CHORUS 4 (3:21 - 4:04)

e|--------------------------------------------------------------|
B|--------------3-3-3-3-3-3-3-3-3-------------------------------|
G|--------------2-2-2-2-2-2-2-2-2--2-2-2-2-2-2------------------| X8
D|-4-----4------0-0-0-0-0-0-0-0-0--2-2-2-2-2-2--2-----2-----2-2-|
A|-4-4-4-4-4-4---------------------0-0-0-0-0-0--2-2-2-2-2-2-2-2-|
E|-2-2-2-2-2-2----------------------------------0-0-0-0-0-0-0-0-|


INTERLUDE 1 (4:05 - 4:16)

e|--------------------|--------------------|
B|--------------------|--------------------|
G|--------------------|--------------------|
D|--------------------|--------------------|
A|------4-4--0-0--2-2-|------4-4--0-0------|
E|-2-2----------------|-2-2------------4-4-|

e|--------------------|--------------------|
B|--------------------|--------------------|
G|--------------------|--------------------|
D|--------------------|--------------------|
A|------2-2-----------|------2-2-----------|
E|-0-0-------3-3--5-5-|-0-0-------3-3--2-2-|

e|--------------------|--------------------|
B|--------------------|--------------------|
G|--------------------|--------------------|
D|------4-4--0-0--2-2-|------4-4--0-0------|
A|-2-2----------------|-2-2------------4-4-|
E|--------------------|--------------------|

e|--------------------|--------------------|
B|--------------------|--------------------|
G|--------------------|--------------------|
D|--------------------|--------------------|
A|------5-5--2-2------|------2-2--5-5------|
E|-3-3------------5-5-|-3-3------------3-3-|

(4:17 - 4:41)
e|-----------------------|
B|-0--2-3-5-3-2--3--5--3-|
G|-----------------------| X2
D|-----------------------|
A|-----------------------|
E|-----------------------|

e|---------------------2-|
B|-0--2-3-5-3-2--3--5----|
G|-----------------------|
D|-----------------------|
A|-----------------------|
E|-----------------------|

e|-----------------------|
B|-0--2-3-5-3-2--3--5--3-|
G|-----------------------| X3
D|-----------------------|
A|-----------------------|
E|-----------------------|

e|---------------------2-|
B|-0--2-3-5-3-2--3--5----|
G|-----------------------|
D|-----------------------|
A|-----------------------|
E|-----------------------|

e|-----------------------|
B|-0--2-3-5-3-2--3--5--3-|
G|-----------------------|
D|-----------------------|
A|-----------------------|
E|-----------------------|

SOLO 3 (4:51 - 5:14)

e|-------------------------|------16---17--19---19--17h19p17--|
B|-14-----14-15-17-19---19-|--19------------------------------|
G|-----16------------------|----------------------------------|
D|-------------------------|----------------------------------|
A|-------------------------|----------------------------------|
E|-------------------------|----------------------------------|

e|-16h17p16-14-----|------------------------------|
B|--------------15-|--14h15p14--12---------12--14-|
G|-----------------|----------------13-14---------|
D|-----------------|------------------------------|
A|-----------------|------------------------------|
E|-----------------|------------------------------|

e|-14-16-17-19-21----21---17----|-16----14-------------------------------------|
B|---------------------------19-|----17----15-17-14-15----14-15----14-15-17-19-|
G|------------------------------|----------------------16-------16-------------|
D|------------------------------|----------------------------------------------|
A|------------------------------|----------------------------------------------|
E|------------------------------|----------------------------------------------|

e|-14----------------------------|-------14-17-19b--19b--17----------|
B|----17-14----------------------|-14-17--------------------19~~~~~~-|
G|----------17-16-14-16-14-17-16-|-----------------------------------|
D|-------------------------------|-----------------------------------|
A|-------------------------------|-----------------------------------|
E|-------------------------------|-----------------------------------|

INTERLUDE 2 (5:18 - 5:39)

e|-------0------------0------------0-------------0-|
B|-------0------------0------------0-------------0-|
G|-------2------------2------------2-------------2-|
D|----4---------------4------------4-------------4-|
A|---------------2-------------4-------------2-----|
E|-2---------0-------------2-------------0---------|

(5:39 - 6:05)

e|----------7h9~~~~~~-7-------------------------------|
B|-9---10----------------10--9--10--9-----------------|
G|-------------------------------------9--------------|
D|----------------------------------------9---9h11~~~-|
A|----------------------------------------------------|
E|----------------------------------------------------|

e|----------7h9~~~~~~-7-------------------------------|
B|-9---10----------------10--9--10--9-----------------|
G|-------------------------------------9------9h11~~~-|
D|----------------------------------------9-----------|
A|----------------------------------------------------|
E|----------------------------------------------------|

BRIDGE (6:20 and beyond)
e|--------------------------------------|
B|--------------------------------------|
G|--------------------------------------|
D|-4-----4-------4-7-7-7-7--2-2---2---2-|
A|-4-4-4-4---4-4-4-7-7-7-7--2-2---2-2-2-|
E|-2-2-2-2---2-2-2-5-5-5-5--0-0---0-0-0-|

SOLO 4 (6:31 - 6:43)

e|-----------------------|-------------14-14h16p14-12-14-|
B|-----------------------|----------14-------------------|
G|----14-16-16b-14----14-|----14-16----------------------|
D|-14--------------16----|-16----------------------------|
A|-----------------------|-------------------------------|
E|-----------------------|-------------------------------|

e|-14-16-17-19--17-16------------------------------------------------------|
B|--------------------17-15-14h15p14-----------------------14-15-17-19--19-|
G|-----------------------------------16p14h16p14-13--14h16-----------------|
D|-------------------------------------------------------------------------|
A|-------------------------------------------------------------------------|
E|-------------------------------------------------------------------------|

e|-------------------------14---14-14-|
B|------------------------------------|
G|----14-16-16b-14----14--------------|
D|-14--------------16-----------------|
A|------------------------------------|
E|------------------------------------|

RIFF (6:44 - 6:54)

e|-14-17-17-17-17-16-16-16-16-14-14-14-16-14-------|
B|-------------------------------------------17-17-|
G|-------------------------------------------------|
D|-------------------------------------------------|
A|-------------------------------------------------|
E|-------------------------------------------------|

e|-19-19-19-19-17-17-17-17-16-16-16-16-17-16----14-|
B|-------------------------------------------17----|
G|-------------------------------------------------| 
D|-------------------------------------------------|
A|-------------------------------------------------|
E|-------------------------------------------------|

e|-17-17-17-17-16-16-16-16-14-14-14----16-14----|
B|----------------------------------17-------17-|
G|----------------------------------------------|
D|----------------------------------------------|
A|----------------------------------------------|
E|----------------------------------------------|

e|-19-19-19-19-17-17-17-17-16-16-16-16-17-16----14-|
B|-------------------------------------------17----|
G|-------------------------------------------------| 
D|-------------------------------------------------|
A|-------------------------------------------------|
E|-------------------------------------------------|

SOLO 5 (6:55 - 7:06)

e|-14-17--14-17--14~~~-14-16-17-19-17-19-21-|-19-17-16-17-16----|
B|----------------------------------------|------------------17-|
G|----------------------------------------|---------------------|
D|----------------------------------------|---------------------|
A|----------------------------------------|---------------------|
E|----------------------------------------|---------------------|

e|-14-17--14-17--17-14-17-14--19~~~-------|-------------14------14-|
B|----------------------------------------|-------12-14------14----|
G|----------------------------------------|-11-14------------------|
D|----------------------------------------|------------------------|
A|----------------------------------------|------------------------|
E|----------------------------------------|------------------------|

e|-12--------------------------|
B|-----14---12---10------10----|
G|------------------11------11-|
D|-----------------------------|
A|-----------------------------|
E|-----------------------------|

RIFF (7:06 - 7:16)

e|-14-17-17-17-17-16-16-16-16-14-14-14----------|
B|-------------------------------------17-17-17-|
G|----------------------------------------------|
D|----------------------------------------------|
A|----------------------------------------------|
E|----------------------------------------------|

e|-19-19-19-19-17-17-17-17-16-16-16-16-17-16----14-|
B|-------------------------------------------17----|
G|-------------------------------------------------| X2
D|-------------------------------------------------|
A|-------------------------------------------------|
E|-------------------------------------------------|


BRIDGE (7:17 - 7:28)

e|--------------------------------------|
B|--------------------------------------|
G|--------------------------------------|
D|-4-----4-------4-7-7-7-7--2-2---2---2-| X2
A|-4-4-4-4---4-4-4-7-7-7-7--2-2---2-2-2-|
E|-2-2-2-2---2-2-2-5-5-5-5--0-0---0-0-0-|

OUTRO (7:40 - 7:51)

e|----------7h9~~~~~~-7-------------------------------|
B|-9---10----------------10--9--10--9-----------------|
G|-------------------------------------9--------------|
D|----------------------------------------9---9h11~~~-|
A|----------------------------------------------------|
E|----------------------------------------------------|

VOCALS OUTRO (7:52 - 8:06)

            
            
Suggest correction
Creating personal tab
Creating personal tab
You can edit any tab online and save it as your Personal.

You can edit, replace or remove any tab part or add personal notes – all changes will be seen only by you.

Personal tabs can be accessed anytime from any device, even offline.
Learn more »
comments
print report bad tab
guest
You may want to rate the tab now too:
select rating
Wanna post a correction for this tab? Suggest correction