Oops, an error
Loading. Please wait.
We have an official The Trooper tab made by UG professional guitarists. Check out the tab »
×

The Trooper bass

version 3
version 3

Whole song

5,261 views 3 this week
2 commentsread comments
1 2 3 4 5
x 5
add to favorites
×
Save as Personal and add changes to this tab that will be seen only by you. Learn more ›
×
You can save this tab as Personal to edit and correct it or add notes. All changes will be seen only by you. Learn more »
launch autoscroll
font size
0
reset
guitar tuner
backing track
0:00
0:00
edit
Autoscroll
slow
fast
+/-
esc
set tempo
stop
Author
Difficulty
IRON MAIDEN
The trooper

I have included a rare solo


                                                                 
G||------------------|-------------------|----------------------|
D||------------------|-------------------|-------------5--------|
A||------------------|--7----------------|----------5-----5--7--|
E||------------------|-------------------|----------------------|


                                                             
------------------|----------------------|------------------|
------------------|-------------5--------|------------------|
------------------|----------5-----5--7--|------------------|
------------------|----------------------|------------------|


                                                                 
----------------------|------------------|----------------------|
-------------5--------|------------------|-------------5--------|
----------5-----5--7--|------------------|----------5-----5--7--|
----------------------|------------------|----------------------|


                                                          
----------------------------|----------------------------|
----------------------------|-------------------5--------|
----7--7--7-7-7--7-7-7--7-7-|--7--7-7-7--7-7-5-----5--7--|
----------------------------|----------------------------|


                                                          
----------------------------|----------------------------|
----------------------------|-------------------5--------|
----7--7--7-7-7--7-7-7--7-7-|--7--7-7-7--7-7-5-----5--3--|
----------------------------|----------------------------|


                                                          
----------------------------|----------------------------|
----------------------------|-------------------5--------|
----3--3--3-3-3--3-3-3--3-3-|--3--3-3-3--3-3-5-----5--7--|
----------------------------|----------------------------|


                                                          
----------------------------|----------------------------|
----------------------------|-------------------5--------|
----7--7--7-7-7--7-7-7--7-7-|--7--7-7-7--7-7-5-----5--7--|
----------------------------|----------------------------|


                                                          
----------------------------|----------------------------|
----------------------------|-------------------5--------|
----7--7--7-7-7--7-7-7--7-7-|--7--7-7-7--7-7-5-----5--7--|
----------------------------|----------------------------|


                                                          
----------------------------|----------------------------|
----------------------------|-------------------5--------|
----7--7--7-7-7--7-7-7--7-7-|--7--7-7-7--7-7-5-----5--3--|
----------------------------|----------------------------|


                                                          
----------------------------|----------------------------|
----------------------------|-------------------5--------|
----3--3--3-3-3--3-3-3--3-3-|--3--3-3-3--3-3-5-----5--7--|
----------------------------|----------------------------|


                                                                             
----------------------------|----------------------------|------------------|
----------------------------|-------------------5--------|------------------|
----7--7--7-7-7--7-7-7--7-7-|--7--7-7-7--7-7-5-----5--7--|------------------|
----------------------------|----------------------------|------------------|


                                                                 
----------------------|------------------|----------------------|
-------------5--------|------------------|-------------5--------|
----------5-----5--7--|------------------|----------5-----5--3--|
----------------------|------------------|----------------------|


                                                             
------------------|----------------------|------------------|
------------------|-------------5--------|------------------|
------------------|----------5-----5--7--|------------------|
------------------|----------------------|------------------|


                                                    
----------------------|----------------------------|
-------------5--------|----------------------------|
----------5-----5--7--|----7--7--7-7-7--7-7-7--7-7-|
----------------------|----------------------------|


                                                           
----------------------------|-----------------------------|
-------------------5--------|-----------------------------|
--7--7-7-7--7-7-5-----5--7--|----7-7-7--7-7-7--7-7-7--7-7-|
----------------------------|-----------------------------|


                                                           
----------------------------|-----------------------------|
-------------------5--------|-----------------------------|
--7--7-7-7--7-7-5-----5--3--|----3-3-3--3-3-3--3-3-3--3-3-|
----------------------------|-----------------------------|


                                                           
----------------------------|-----------------------------|
-------------------5--------|-----------------------------|
--3--3-3-3--3-3-5-----5--7--|----7-7-7--7-7-7--7-7-7--7-7-|
----------------------------|-----------------------------|


                                                           
----------------------------|-----------------------------|
-------------------5--------|-----------------------------|
--7--7-7-7--7-7-5-----5--5--|----5-5-5--5-5-5--5-5-5--5-5-|
----------------------------|-----------------------------|


                                                             
-----------------------------|------------------------------|
-----------------------------|------------------------------|
--5--5-5-5--5-5-5--5-5-5--7--|--7--7-7-7--7-7-7--7-7-7--7-7-|
-----------------------------|------------------------------|


                                                            
-----------------------------|-----------------------------|
-----------------------------|-----------------------------|
--7--7-7-7--7-7-7--7-7-7--5--|----5-5-5--5-5-5--5-5-5--5-5-|
-----------------------------|-----------------------------|


                                                            
-----------------------------|-----------------------------|
-----------------------------|-----------------------------|
--5--5-5-5--5-5-5--5-5-5--7--|----7-7-7--7-7-7--7-7-7--7-7-|
-----------------------------|-----------------------------|


                                                          
----------------------------|----------------------------|
-------------------5--------|----------------------------|
--7--7-7-7--7-7-5-----5--7--|----7--7--7-7-7--7-7-7--7-7-|
----------------------------|----------------------------|


                                                           
----------------------------|-----------------------------|
-------------------5--------|-----------------------------|
--7--7-7-7--7-7-5-----5--7--|----7-7-7--7-7-7--7-7-7--7-7-|
----------------------------|-----------------------------|


                                                           
----------------------------|-----------------------------|
-------------------5--------|-----------------------------|
--7--7-7-7--7-7-5-----5--3--|----3-3-3--3-3-3--3-3-3--3-3-|
----------------------------|-----------------------------|


                                                           
----------------------------|-----------------------------|
-------------------5--------|-----------------------------|
--3--3-3-3--3-3-5-----5--7--|----7-7-7--7-7-7--7-7-7--7-7-|
----------------------------|-----------------------------|


                                                           
----------------------------|-----------------------------|
-------------------5--------|-----------------------------|
--7--7-7-7--7-7-5-----5--7--|----7-7-7--7-7-7--7-7-7--7-7-|
----------------------------|-----------------------------|


                                                           
----------------------------|-----------------------------|
-------------------5--------|-----------------------------|
--7--7-7-7--7-7-5-----5--7--|----7-7-7--7-7-7--7-7-7--7-7-|
----------------------------|-----------------------------|


                                                           
----------------------------|-----------------------------|
-------------------5--------|-----------------------------|
--7--7-7-7--7-7-5-----5--3--|----3-3-3--3-3-3--3-3-3--3-3-|
----------------------------|-----------------------------|


                                                           
----------------------------|-----------------------------|
-------------------5--------|-----------------------------|
--3--3-3-3--3-3-5-----5--7--|----7-7-7--7-7-7--7-7-7--7-7-|
----------------------------|-----------------------------|


                                                           
----------------------------|-----------------------------|
-------------------5--------|-----------------------------|
--7--7-7-7--7-7-5-----5--7--|----7-7-7--7-7-7--7-7-7--7-7-|
----------------------------|-----------------------------|


                                                           
----------------------------|-----------------------------|
-------------------5--------|-----------------------------|
--7--7-7-7--7-7-5-----5--7--|----7-7-7--7-7-7--7-7-7--7-7-|
----------------------------|-----------------------------|


                                                           
----------------------------|-----------------------------|
-------------------5--------|-----------------------------|
--7--7-7-7--7-7-5-----5--3--|----3-3-3--3-3-3--3-3-3--3-3-|
----------------------------|-----------------------------|


                                                           
----------------------------|-----------------------------|
-------------------5--------|-----------------------------|
--3--3-3-3--3-3-5-----5--7--|----7-7-7--7-7-7--7-7-7--7-7-|
----------------------------|-----------------------------|


                                                           
----------------------------|-----------------------------|
-------------------5--------|-----------------------------|
--7--7-7-7--7-7-5-----5--7--|----7-7-7--7-7-7--7-7-7--7-7-|
----------------------------|-----------------------------|


                                                           
----------------------------|-----------------------------|
-------------------5--------|-----------------------------|
--7--7-7-7--7-7-5-----5--7--|----7-7-7--7-7-7--7-7-7--7-7-|
----------------------------|-----------------------------|


                                                           
----------------------------|-----------------------------|
-------------------5--------|-----------------------------|
--7--7-7-7--7-7-5-----5--3--|----3-3-3--3-3-3--3-3-3--3-3-|
----------------------------|-----------------------------|


                                                           
----------------------------|-----------------------------|
-------------------5--------|-----------------------------|
--3--3-3-3--3-3-5-----5--7--|----7-7-7--7-7-7--7-7-7--7-7-|
----------------------------|-----------------------------|


                                                           
----------------------------|-----------------------------|
-------------------5--------|-----------------------------|
--7--7-7-7--7-7-5-----5--5--|----5-5-5--5-5-5--5-5-5--5-5-|
----------------------------|-----------------------------|


                                                            
-----------------------------|-----------------------------|
-----------------------------|-----------------------------|
--5--5-5-5--5-5-5--5-5-5--7--|----7-7-7--7-7-7--7-7-7--7-7-|
-----------------------------|-----------------------------|


                                                            
-----------------------------|-----------------------------|
-----------------------------|-----------------------------|
--7--7-7-7--7-7-7--7-7-7--5--|----5-5-5--5-5-5--5-5-5--5-5-|
-----------------------------|-----------------------------|


                                                            
-----------------------------|-----------------------------|
-----------------------------|-----------------------------|
--5--5-5-5--5-5-5--5-5-5--7--|----7-7-7--7-7-7--7-7-7--7-7-|
-----------------------------|-----------------------------|


                                                           
----------------------------|-----------------------------|
-------------------5--------|-----------------------------|
--7--7-7-7--7-7-5-----5--5--|----7-7-7--7-7-7--7-7-7--7-7-|
----------------------------|-----------------------------|


                                                              
------------------------------|------------------------------|
------------------------------|------------------------------|
--5--5-5-5--5-5-5--5-5-5--5-5-|--2--2-2-2--2-2-2--2-2-2--2-2-|
------------------------------|------------------------------|


                                                              
------------------------------|------------------------------|
------------------------------|------------------------------|
--3--3-3-3--3-3-5--5-5-5--5-5-|--7--7-7-7--7-7-7--7-7-7--7-7-|
------------------------------|------------------------------|


                                                              
------------------------------|------------------------------|
------------------------------|------------------------------|
--5--5-5-5--5-5-5--5-5-5--5-5-|--2--2-2-2--2-2-2--2-2-2--2-2-|
------------------------------|------------------------------|


                                                              
------------------------------|------------------------------|
------------------------------|------------------------------|
--3--3-3-3--3-3-5--5-5-5--5-5-|--7--7-7-7--7-7-7--7-7-7--7-7-|
------------------------------|------------------------------|


                                                              
------------------------------|------------------------------|
------------------------------|------------------------------|
--5--5-5-5--5-5-5--5-5-5--5-5-|--2--2-2-2--2-2-2--2-2-2--2-2-|
------------------------------|------------------------------|


                                                              
------------------------------|------------------------------|
------------------------------|------------------------------|
--3--3-3-3--3-3-5--5-5-5--5-5-|--7--7-7-7--7-7-7--7-7-7--7-7-|
------------------------------|------------------------------|


                                                              
------------------------------|------------------------------|
------------------------------|------------------------------|
--5--5-5-5--5-5-5--5-5-5--5-5-|--2--2-2-2--2-2-2--2-2-2--2-2-|
------------------------------|------------------------------|


                                                              
------------------------------|------------------------------|
------------------------------|------------------------------|
--3--3-3-3--3-3-5--5-5-5--5-5-|--0--0-0-0--0-0-0--0-0-0--0-0-|
------------------------------|------------------------------|


                                                              
------------------------------|------------------------------|
------------------------------|------------------------------|
------------------------------|------------------------------|
--3--3-3-3--3-3-3--3-3-3--3-3-|--0--0-0-0--0-0-0--0-0-0--0-0-|


                                                              
------------------------------|------------------------------|
------------------------------|------------------------------|
------------------------------|--0--0-0-0--0-0-0--0-0-0--0-0-|
--1--1-1-1--1-1-3--3-3-3--3-3-|------------------------------|


                                                              
------------------------------|------------------------------|
------------------------------|------------------------------|
------------------------------|------------------------------|
--3--3-3-3--3-3-3--3-3-3--3-3-|--0--0-0-0--0-0-0--0-0-0--0-0-|


                                                              
------------------------------|------------------------------|
------------------------------|------------------------------|
------------------------------|--0--0-0-0--0-0-0--0-0-0--0-0-|
--1--1-1-1--1-1-3--3-3-3--3-3-|------------------------------|


                                                              
------------------------------|------------------------------|
------------------------------|------------------------------|
------------------------------|------------------------------|
--3--3-3-3--3-3-3--3-3-3--3-3-|--0--0-0-0--0-0-0--0-0-0--0-0-|


                                                              
------------------------------|------------------------------|
------------------------------|------------------------------|
------------------------------|--0--0-0-0--0-0-0--0-0-0--0-0-|
--1--1-1-1--1-1-3--3-3-3--3-3-|------------------------------|


                                                              
------------------------------|------------------------------|
------------------------------|------------------------------|
------------------------------|------------------------------|
--3--3-3-3--3-3-3--3-3-3--3-3-|--0--0-0-0--0-0-0--0-0-0--0-0-|


                                                                
----------------------------|----------------------------------|
-------------------5--------|--------7------7---------5--------|
----------------5-----5--7--|----5-5----5-5-----0h5-5----5-7---|
--1--1-1-1--1-1-------------|----------------------------------|


                                                               
---------------------------------|----------------------------|
-----------5------------5--------|----7--7--5-5-0h5p0---------|
--7--0h5-5----5-3---5-5----5--7--|--------------------5p3p0---|
---------------------------------|----------------------------|


                                                         
----------------------------|-------5-------------------|
---------5---5-----7--------|----------5--5p3p0--3p2p0--|
--3----3---3----5-----5--3--|----3----------------------|
----------------------------|---------------------------|


                                  
--0h2h3--0h3h5p3-7p0h12p0h7-7/9/-|
---------------------------------|
---------------------------------|
---------------------------------|


                                                                            
----16--14h16p14h16p14/19/-16--14h16p14h16p14/|--16------------------------|
----------------------------------------------|------17--17/------5--------|
----------------------------------------------|----------------5-----5--7--|
----------------------------------------------|----------------------------|


                                                           
-----------------------------|----------------------------|
-----------------------------|-------------------5--------|
----7-7-7--7-7-7--7-7-7--7-7-|--7--7-7-7--7-7-5-----5--7--|
-----------------------------|----------------------------|


                                                           
-----------------------------|----------------------------|
-----------------------------|-------------------5--------|
----7-7-7--7-7-7--7-7-7--7-7-|--7--7-7-7--7-7-5-----5--3--|
-----------------------------|----------------------------|


                                                           
-----------------------------|----------------------------|
-----------------------------|-------------------5--------|
----3-3-3--3-3-3--3-3-3--3-3-|--3--3-3-3--3-3-5-----5--7--|
-----------------------------|----------------------------|


                                                           
-----------------------------|----------------------------|
-----------------------------|-------------------5--------|
----7-7-7--7-7-7--7-7-7--7-7-|--7--7-7-7--7-7-5-----5--7--|
-----------------------------|----------------------------|


                                                          
----------------------------|----------------------------|
----------------------------|-------------------5--------|
----7--7--7-7-7--7-7-7--7-7-|--7--7-7-7--7-7-5-----5--7--|
----------------------------|----------------------------|


                                                           
-----------------------------|----------------------------|
-----------------------------|-------------------5--------|
----7-7-7--7-7-7--7-7-7--7-7-|--7--7-7-7--7-7-5-----5--3--|
-----------------------------|----------------------------|


                                                           
-----------------------------|----------------------------|
-----------------------------|-------------------5--------|
----3-3-3--3-3-3--3-3-3--3-3-|--3--3-3-3--3-3-5-----5--7--|
-----------------------------|----------------------------|


                                                           
-----------------------------|----------------------------|
-----------------------------|-------------------5--------|
----7-7-7--7-7-7--7-7-7--7-7-|--7--7-7-7--7-7-5-----5--7--|
-----------------------------|----------------------------|


                                                          
----------------------------|----------------------------|
----------------------------|-------------------5--------|
----7--7--7-7-7--7-7-7--7-7-|--7--7-7-7--7-7-5-----5--7--|
----------------------------|----------------------------|


                                                           
-----------------------------|----------------------------|
-----------------------------|-------------------5--------|
----7-7-7--7-7-7--7-7-7--7-7-|--7--7-7-7--7-7-5-----5--3--|
-----------------------------|----------------------------|


                                                           
-----------------------------|----------------------------|
-----------------------------|-------------------5--------|
----3-3-3--3-3-3--3-3-3--3-3-|--3--3-3-3--3-3-5-----5--7--|
-----------------------------|----------------------------|


                                                           
-----------------------------|----------------------------|
-----------------------------|-------------------5--------|
----7-7-7--7-7-7--7-7-7--7-7-|--7--7-7-7--7-7-5-----5--7--|
-----------------------------|----------------------------|


                                                           
-----------------------------|----------------------------|
-----------------------------|-------------------5--------|
----7-7-7--7-7-7--7-7-7--7-7-|--7--7-7-7--7-7-5-----5--7--|
-----------------------------|----------------------------|


                                                           
-----------------------------|----------------------------|
-----------------------------|-------------------5--------|
----7-7-7--7-7-7--7-7-7--7-7-|--7--7-7-7--7-7-5-----5--3--|
-----------------------------|----------------------------|


                                                           
-----------------------------|----------------------------|
-----------------------------|-------------------5--------|
----3-3-3--3-3-3--3-3-3--3-3-|--3--3-3-3--3-3-5-----5--7--|
-----------------------------|----------------------------|


                                                           
-----------------------------|----------------------------|
-----------------------------|-------------------5--------|
----7-7-7--7-7-7--7-7-7--7-7-|--7--7-7-7--7-7-5-----5--5--|
-----------------------------|----------------------------|


                                                            
-----------------------------|-----------------------------|
-----------------------------|-----------------------------|
----5-5-5--5-5-5--5-5-5--5-5-|--5--5-5-5--5-5-5--5-5-5--7--|
-----------------------------|-----------------------------|


                                                            
-----------------------------|-----------------------------|
-----------------------------|-----------------------------|
----7-7-7--7-7-7--7-7-7--7-7-|--7--7-7-7--7-7-7--7-7-7--5--|
-----------------------------|-----------------------------|


                                                            
-----------------------------|-----------------------------|
-----------------------------|-----------------------------|
----5-5-5--5-5-5--5-5-5--5-5-|--5--5-5-5--5-5-5--5-5-5--7--|
-----------------------------|-----------------------------|


                                                                              
-----------------------------|----------------------------|------------------|
-----------------------------|-------------------5--------|------------------|
----7-7-7--7-7-7--7-7-7--7-7-|--7--7-7-7--7-7-5-----5--7--|------------------|
-----------------------------|----------------------------|------------------|


                                                                 
----------------------|------------------|----------------------|
-------------5--------|------------------|-------------5--------|
----------5-----5--7--|------------------|----------5-----5--7--|
----------------------|------------------|----------------------|


                                                             
------------------|----------------------|------------------|
------------------|-------------5--------|------------------|
------------------|----------5-----5--7--|------------------|
------------------|----------------------|------------------|


                                           
----------------------|------------------||
-------------5--------|------------------||
----------5-----5--7--|------------------||
----------------------|------------------||


Tabbed by Ed_Hunter




            
            
Suggest correction
Creating personal tab
Creating personal tab
You can edit any tab online and save it as your Personal.

You can edit, replace or remove any tab part or add personal notes – all changes will be seen only by you.

Personal tabs can be accessed anytime from any device, even offline.
Learn more »
comments
print report bad tab
2 comments total.
+2 reply
BroDD 368 Oct 02, 2006 11:43 AM

Bass plays the whole intro...

+2 reply
BroDD 368 Oct 02, 2006 11:44 AM

And outro...

guest
You may want to rate the tab now too:
select rating
Wanna post a correction for this tab? Suggest correction