Oops, an error
Loading. Please wait.
We have an official The Trooper tab made by UG professional guitarists. Check out the tab »
×

The Trooper bass

version 6
version 6

Whole song

506 views 3 this week
no commentswrite comment
1 2 3 4 5
x 3
add to favorites
×
Save as Personal and add changes to this tab that will be seen only by you. Learn more ›
×
You can save this tab as Personal to edit and correct it or add notes. All changes will be seen only by you. Learn more »
launch autoscroll
font size
0
reset
guitar tuner
backing track
0:00
0:00
edit
Autoscroll
slow
fast
+/-
esc
set tempo
stop
Author
Difficulty
About this tab version
More accurate, formatted batter, the other versions are missing some parts. Was this info helpful? Yes No
Tabbed by: 6METAL6BASSIST6
E-mail: petergriffinav@gmail.com

Tuning: EADG

G|9---|
D|----|
A|----|
E|----|

G|9---9-7-----7---7---7-5-----5---5---5-3-------------------------|
D|--------9---------------7---------------5-------5---------------| x4
A|--------------------------------------------5-------5---7-------|
E-----------------------------------------------------------------|

0:14

G|----------------------------------------------------------------|.
D|------------------------------------------------5---------------|.
A|7---7---7-7-7---7-7-7---7-7-7---7-7-7---0---5-------5---7-------|.
E|----------------------------------------------------------------|.
                                                                   .
G|----------------------------------------------------------------|.
D|------------------------------------------------5---------------|.
A|7---7---7-7-7---7-7-7---7-7-7---7-7-7---0---5-------5---3-------|.
E|----------------------------------------------------------------|.
                                                                   . x2
G|----------------------------------------------------------------|.
D|------------------------------------------------5---------------|.
A|3---3---3-3-3---3-3-3---3-3-3---3-3-3---0---5-------5---7-------|.
E|----------------------------------------------------------------|.
                                                                   .
G|----------------------------------------------------------------|.
D|------------------------------------------------5---------------|.
A|7---7---7-7-7---7-7-7---7-7-7---7-7-7-------5-------5---7-------|.
E|----------------------------------------------------------------|.

0:38

G|----------------------------------------------------------------|
D|------------------------------------------------5---------------|
A|--------------------------------------------5-------5---7-------|
E|----------------------------------------------------------------|

G|----------------------------------------------------------------|
D|------------------------------------------------5---------------|
A|--------------------------------------------5-------5---3-------|
E|----------------------------------------------------------------|

G|----------------------------------------------------------------|
D|------------------------------------------------5---------------| x2
A|--------------------------------------------5-------5---7-------|
E|----------------------------------------------------------------|

0:48

G|----------------------------------------------------------------|
D|------------------------------------------------5---------------|
A|7---7---7-7-7---7-7-7---7-7-7---7-7-7---0---5-------5---7-------|
E|----------------------------------------------------------------|

G|----------------------------------------------------------------|
D|------------------------------------------------5---------------|
A|7---7---7-7-7---7-7-7---7-7-7---7-7-7---0---5-------5---3-------|
E|----------------------------------------------------------------|

G|----------------------------------------------------------------|
D|------------------------------------------------5---------------|
A|3---3---3-3-3---3-3-3---3-3-3---3-3-3---0---5-------5---7-------|
E|----------------------------------------------------------------|

G|----------------------------------------------------------------|
D|----------------------------------------------------------------|
A|7---7---7-7-7---7-7-7---7-7-7---7-7-7---7-7-7---7-7-7---7-7-7---|
E|----------------------------------------------------------------|

1:02

G|----------------------------------------------------------------|
D|----------------------------------------------------------------|
A|5-------5---5---5-5-5---5-5-5---5-5-5---5-5-5---5-5-5---5-------|
E|----------------------------------------------------------------|

G|----------------------------------------------------------------|
D|----------------------------------------------------------------|
A|7-------7---7---7-7-7---7-7-7---7-7-7---7-7-7---7-7-7---7-------|
E|----------------------------------------------------------------|

G|----------------------------------------------------------------|
D|----------------------------------------------------------------|
A|5-------5---5---5-5-5---5-5-5---5-5-5---5-5-5---5-5-5---5-------|
E|----------------------------------------------------------------|

G|----------------------------------------------------------------|
D|--------------------------------------------------------5-------|
A|7-------7---7---7-7-7---7-7-7---7-7-7---7-7-7-------5-------5---|
E|----------------------------------------------------------------|

1:12

G|----------------------------------------------------------------|.
D|--------------------------------------------------------5-------|.
A|7-------7---7---7-7-7---7-7-7---7-7-7---7-7-7---0---5-------5---|.
E|----------------------------------------------------------------|.
                                                                   .
G|----------------------------------------------------------------|.
D|--------------------------------------------------------5-------|.
A|7-------7---7---7-7-7---7-7-7---7-7-7---7-7-7---0---5-------5---|.
E|----------------------------------------------------------------|.
                                                                   . x2
G|----------------------------------------------------------------|.
D|--------------------------------------------------------3-------|.
A|3-------3---3---3-3-3---3-3-3---3-3-3---3-3-3---0---3-------3---|.
E|----------------------------------------------------------------|.
                                                                   .
G|----------------------------------------------------------------|.
D|--------------------------------------------------------5-------|.
A|5-------5---5---5-5-5---5-5-5---5-5-5---5-5-5-------5-------5---|.
E|----------------------------------------------------------------|.

1:36

G|----------------------------------------------------------------|
D|------------------------------------------------5---------------|
A|7---7---7-7-7---7-7-7---7-7-7---7-7-7---0---5-------5---7-------|
E|----------------------------------------------------------------|

G|----------------------------------------------------------------|
D|------------------------------------------------5---------------|
A|7---7---7-7-7---7-7-7---7-7-7---7-7-7---0---5-------5---3-------|
E|----------------------------------------------------------------|

G|----------------------------------------------------------------|
D|------------------------------------------------5---------------|
A|3---3---3-3-3---3-3-3---3-3-3---3-3-3---0---5-------5---7-------|
E|----------------------------------------------------------------|

G|----------------------------------------------------------------|
D|------------------------------------------------5---------------|
A|7---7---7-7-7---7-7-7---7-7-7---7-7-7-------5-------5---7-------|
E|----------------------------------------------------------------|

G|----------------------------------------------------------------|
D|------------------------------------------------5---------------|
A|7---7---7-7-7---7-7-7---7-7-7---7-7-7---0---5-------5---7-------|
E|----------------------------------------------------------------|

G|----------------------------------------------------------------|
D|------------------------------------------------5---------------|
A|7---7---7-7-7---7-7-7---7-7-7---7-7-7---0---5-------5---3-------|
E|----------------------------------------------------------------|

G|----------------------------------------------------------------|
D|------------------------------------------------5---------------|
A|3---3---3-3-3---3-3-3---3-3-3---3-3-3---0---5-------5---7-------|
E|----------------------------------------------------------------|

G|----------------------------------------------------------------|
D|----------------------------------------------------------------|
A|7---7---7-7-7---7-7-7---7-7-7---7-7-7---7-7-7---7-7-7---7-7-7---|
E|----------------------------------------------------------------|

2:00

G|----------------------------------------------------------------|
D|----------------------------------------------------------------|
A|5-------5---5---5-5-5---5-5-5---5-5-5---5-5-5---5-5-5---5-------|
E|----------------------------------------------------------------|

G|----------------------------------------------------------------|
D|----------------------------------------------------------------|
A|7-------7---7---7-7-7---7-7-7---7-7-7---7-7-7---7-7-7---7-------|
E|----------------------------------------------------------------|

G|----------------------------------------------------------------|
D|----------------------------------------------------------------|
A|5-------5---5---5-5-5---5-5-5---5-5-5---5-5-5---5-5-5---5-------|
E|----------------------------------------------------------------|

G|----------------------------------------------------------------|
D|--------------------------------------------------------5-------|
A|7-------7---7---7-7-7---7-7-7---7-7-7---7-7-7-------5-------5---|
E|----------------------------------------------------------------|

2:11

G|----------------------------------------------------------------|
D|----------------------------------------------------------------|
A|7-------7---7---7-7-7---7-7-7---0---5---5-5-5---5-5-5---5-5-5---|
E|----------------------------------------------------------------|

G|--------------------------------------------5---------------7---|
D|----------------------------------------5-------5-------7-------|
A|0---2---2-2-2---2-2-2---2-2-2---0---3---------------5-----------|
E|----------------------------------------------------------------|

G|----------------------------------------------------------------|
D|7---------------------------------------------------------------|
A|----7---7-7-7---7-7-7---7-7-7---0---5---5-5-5---5-5-5---5-5-5---|
E|----------------------------------------------------------------|

G|--------------------------------------------5---------------7---|
D|----------------------------------------5-------5-------7-------|
A|0---2---2-2-2---2-2-2---2-2-2---0---3---------------5-----------|
E|----------------------------------------------------------------|

G|----------------------------------------------------------------|
D|7---------------------------------------------------------------|
A|----7---7-7-7---7-7-7---7-7-7---0---5---5-5-5---5-5-5---5-5-5---|
E|----------------------------------------------------------------|

G|--------------------------------------------5---------------7---|
D|----------------------------------------5-------5-------7-------|
A|0---2---2-2-2---2-2-2---2-2-2---0---3---------------5-----------|
E|----------------------------------------------------------------|

G|----------------------------------------------------------------|
D|7---------------------------------------------------------------|
A|----7---7-7-7---7-7-7---7-7-7---0---5---5-5-5---5-5-5---5-5-5---|
E|----------------------------------------------------------------|

G|--------------------------------------------5-------------------|
D|----------------------------------------5---------------5-------|
A|0---2---2-2-2---2-2-2---2-2-2---0---3---------------5-------5---|
E|----------------------------------------------------------------|

2:36

G|----------------------------------------------------------------|
D|7-------7---7---7-7-7---7-7-7---0---5---5-5-5---5-5-5---5-5-5---|
A|----------------------------------------------------------------|
E|----------------------------------------------------------------|

G|--------------------------------------------5---------------7---|
D|0---2---2-2-2---2-2-2---2-2-2---0---3---3-------3---5---5-------|
A|----------------------------------------------------------------|
E|----------------------------------------------------------------|

G|----------------------------------------------------------------|.
D|5---7---7-7-7---7-7-7---7-7-7---0---5---5-5-5---5-5-5---5-5-5---|.
A|----------------------------------------------------------------|.
E|----------------------------------------------------------------|.
                                                                   . x2
G|--------------------------------------------5---------------7---|.
D|0---2---2-2-2---2-2-2---2-2-2---0---3---3-------3---5---5-------|.
A|----------------------------------------------------------------|.
E|----------------------------------------------------------------|.

G|----------------------------------------------------------------|
D|5---7---7-7-7---7-7-7---7-7-7---0---5---5-5-5---5-5-5---5-5-5---|
A|----------------------------------------------------------------|
E|----------------------------------------------------------------|

G|--------------------------------------------5-------------------|
D|0---2---2-2-2---2-2-2---2-2-2---0---3---3---------------5-------|
A|----------------------------------------------------5-------5---|
E|----------------------------------------------------------------|

2:58

G|----------------------------------------------------------------|
D|--------------------------------------------------------5-------|
A|7-------7---7---7-7-7---7-7-7---7-7-7---7-7-7---0---5-------5---|
E|----------------------------------------------------------------|

G|----------------------------------------------------------------|
D|--------------------------------------------------------5-------|
A|7-------7---7---7-7-7---7-7-7---7-7-7---7-7-7-------5-------5---|
E|----------------------------------------------------------------|

G|----------------------------------------------------------------|
D|--------------------------------------------------------3-------|
A|3-------3---3---3-3-3---3-3-3---3-3-3---3-3-3---0---3-------3---|
E|----------------------------------------------------------------|

G|----------------------------------------------------------------|
D|--------------------------------------------------------5-------|
A|5-------5---5---5-5-5---5-5-5---5-5-5---5-5-5-------5-------5---|
E|----------------------------------------------------------------|

G|----------------------------------------------------------------|
D|--------------------------------------------------------5-------|
A|7-------7---7---7-7-7---7-7-7---7-7-7---7-7-7-------5-------5---|
E|----------------------------------------------------------------|

G|----------------------------------------------------------------|
D|--------------------------------------------------------5-------|
A|7-------7---7---7-7-7---7-7-7---7-7-7---7-7-7---0---5-------5---|
E|----------------------------------------------------------------|

G|----------------------------------------------------------------|
D|--------------------------------------------------------3-------|
A|3-------3---3---3-3-3---3-3-3---3-3-3---3-3-3---3---3-------3---|
E|----------------------------------------------------------------|

G|----------------------------------------------------------------|
D|--------------------------------------------------------5-------|
A|5-------5---5---5-5-5---5-5-5---5-5-5---5-5-5-------5-------5---|
E|----------------------------------------------------------------|

3:22

G|----------------------------------------------------------------|
D|------------------------------------------------5---------------|
A|7---7---7-7-7---7-7-7---7-7-7---7-7-7---0---5-------5---7-------|
E|----------------------------------------------------------------|

G|----------------------------------------------------------------|
D|------------------------------------------------5---------------|
A|7---7---7-7-7---7-7-7---7-7-7---7-7-7---0---5-------5---3-------|
E|----------------------------------------------------------------|

G|----------------------------------------------------------------|
D|------------------------------------------------5---------------|
A|3---3---3-3-3---3-3-3---3-3-3---3-3-3---0---5-------5---7-------|
E|----------------------------------------------------------------|

G|----------------------------------------------------------------|
D|------------------------------------------------5---------------|
A|7---7---7-7-7---7-7-7---7-7-7---7-7-7-------5-------5---7-------|
E|----------------------------------------------------------------|

G|----------------------------------------------------------------|
D|------------------------------------------------5---------------|
A|7---7---7-7-7---7-7-7---7-7-7---7-7-7---0---5-------5---7-------|
E|----------------------------------------------------------------|

G|----------------------------------------------------------------|
D|------------------------------------------------5---------------|
A|7---7---7-7-7---7-7-7---7-7-7---7-7-7---0---5-------5---3-------|
E|----------------------------------------------------------------|

G|----------------------------------------------------------------|
D|------------------------------------------------5---------------|
A|3---3---3-3-3---3-3-3---3-3-3---3-3-3---0---5-------5---7-------|
E|----------------------------------------------------------------|

G|----------------------------------------------------------------|
D|----------------------------------------------------------------|
A|7---7---7-7-7---7-7-7---7-7-7---7-7-7---7-7-7---7-7-7---7-------|
E|----------------------------------------------------------------|

3:46

G|----------------------------------------------------------------|
D|----------------------------------------------------------------|
A|5-------5---5---5-5-5---5-5-5---5-5-5---5-5-5---5-5-5---5-------|
E|----------------------------------------------------------------|

G|----------------------------------------------------------------|
D|----------------------------------------------------------------|
A|7-------7---7---7-7-7---7-7-7---7-7-7---7-7-7---7-7-7---7-------|
E|----------------------------------------------------------------|

G|----------------------------------------------------------------|
D|----------------------------------------------------------------|
A|5-------5---5---5-5-5---5-5-5---5-5-5---5-5-5---5-5-5---5-------|
E|----------------------------------------------------------------|

G|----------------------------------------------------------------|
D|--------------------------------------------------------5-------|
A|7-------7---7---7-7-7---7-7-7---7-7-7---7-7-7-------5-------5---|
E|----------------------------------------------------------------|

G|----9-7-----7---7---7-5-----5---5---5-3-------------------------|
D|--------9---------------7---------------5-------5---------------|
A|7-------------------------------------------5-------5---7-------|
E-----------------------------------------------------------------|

G|9---9-7-----7---7---7-5-----5---5---5-3-------------------------|
D|--------9---------------7---------------5-------5---------------| x3
A|--------------------------------------------5-------5---7-------|
E-----------------------------------------------------------------|

            
            
Suggest correction
Creating personal tab
Creating personal tab
You can edit any tab online and save it as your Personal.

You can edit, replace or remove any tab part or add personal notes – all changes will be seen only by you.

Personal tabs can be accessed anytime from any device, even offline.
Learn more »
Give kudos to tab author, rate the tab!
1 2 3 4 5
comments
print report bad tab
guest
You may want to rate the tab now too:
select rating
Wanna post a correction for this tab? Suggest correction