Oops, an error
Loading. Please wait.

The Wicker Man Tab

version 1
111,366 views 93 this week
24 commentsread comments
1 2 3 4 5
x 52
add to favorites
launch autoscroll
font size
0
reset
how to read this tab
guitar tuner
backing track
0:00
0:00
×
Best way to learn
"The Wicker Man"
Autoscroll
slow
fast
+/-
esc
set tempo
stop
Notes:

     B    A    G    C
e|---------------------|
B|---------------------|
G|------------------5--|
D|---9----7----5----5--|
A|---9----7----5----3--|
E|---7----5----3-------|


[Intro]

e|---------------------------------------------------|
B|---------------------------------------------------|
G|-----9-9----------9-9---------9-----------5-5--12--|    4x.
D|-----9-9----------9-9---------9-----------5-5--12--|
A|-----7-7----------7-7---------7-----------3-3--10--|
E|--0------0-0-0-0------0-0-0-0----0-0-0-0-----------|
            P.M.         P.M.       P.M.


[Verse]

"Hand of fate is moving..."  repeat Intro


[Pre-Chorus]

 "You watch the world explodin every single night...."
e|---------------------------------------------------|
B|---------------------------------------------------|
G|--7---7-7---5--12-12-12---11--9---7--7-7--5-----5--|    2x.
D|--7---7-7---5--12-12-12---11--9---7--7-7--5--5--5--|
A|--5---5-5---3--10-10-10---9---7---5--5-5--3--5--3--|
E|---------------------------------------------3-----|


[Chorus]

 "Your time will come........................Your time will come...ooooome"
e|-------------------------------------------------------------------------|
B|-------------------------------------------------------------------------|
G|--9-9-9-9-9---5-5-5-5-5------------------------9-9-9-9-9--12-12-12-12-12-|
D|--9-9-9-9-9---5-5-5-5-5--5-5-5-5-5--7-7-7-7-7--9-9-9-9-9--12-12-12-12-12-|
A|--7-7-7-7-7---3-3-3-3-3--5-5-5-5-5--7-7-7-7-7--7-7-7-7-7--10-10-10-10-10-|
E|-------------------------3-3-3-3-3--5-5-5-5-5----------------------------|

e|---------------------------|
B|---------------------------|
G|--5-5-5-5-5----------------|
D|--5-5-5-5-5--5-5-5--7-7-7--|       2x.
A|--3-3-3-3-3--5-5-5--7-7-7--|
E|-------------3-3-3--5-5-5--|

2nd Guitar(Chorus):

e|---------------------------------------|
B|---------------------------------------|
G|--16-14-16-14-16-12--16-14-16-14-16-12-|
D|---------------------------------------|
A|---------------------------------------|
E|---------------------------------------|

e|---------------------------------------|
B|---------------------------------------|
G|-16-14-16-14-16-12--16-14-16-17-16-12--|
D|---------------------------------------|
A|---------------------------------------|
E|---------------------------------------|


[Pre-Solo]

         E               C                 G                      E
e|------------------------------------------------------------------------------|
B|------------------------------------------------------------------------------|
G|------------------------------------------------------------------------------|
D|---------------------------7----7-9----7-9-9-10-9-7---------------------------|
A|--7vv-7-9-10-7vv----7-9-10---10-----10--------------7vvv-----7-7vv--7-9-10-7--|v
E|------------------------------------------------------------------------------|

          C                                G
e|-------------------14-------14-15----17-19-17-15-14-------|
B|---17-17-15-17-17-----17-17-------17----------------17vvv-|
G|----------------------------------------------------------|   2x.
D|----------------------------------------------------------|
A|----------------------------------------------------------|
E|----------------------------------------------------------|


[Solo]

    B       A         G              A                    B
e|------------------10----7---7----7---7----------------------------------|
B|--12v--12v--12v------10---8---10---8---10-------------10bF-10-10-8-10-8-|
G|-------------------------------------------9-(9)--8v--------------------|
D|------------------------------------------------------------------------|
A|---------------------------------------------P.M.-----------------------|
E|------------------------------------------------------------------------|

        A            G                A       B                 A
e|----------------------------------------------------------------------------|
B|----------------------------------------------------------------------------|
G|-9-8-9-8-9-8vv------------------------------------------------9-5-----------|
D|---------------------7---------9-7-----------9-5-----9-5----------9-6-------|
A|----------------7-10---10-7-10-----10-7-6--------9-6-----9-6----------------|
E|----------------------------------------------------------------------------|

              G               A                         B
e|--------------------------------------------------------17-19-20-19-17---17-|
B|--------------------------------------------------19-20----------------20---|
G|--9-5----------------------12-9-------12-9----------------------------------|
D|------9-6--7-4-----7-4----------12-10------12-10----------------------------|
A|---------------7-5-----7-5--------------------------------------------------|
E|----------------------------------------------------------------------------|

       A                                  G                      A
e|-------------17--------------------------17-19-20-19-17----17-------------|
B|-19-17-19-20----20-19-17-19-17-16--19-20----------------20----19-17-16-16-|
G|--------------------------------------------------------------------------|
D|--------------------------------------------------------------------------|
A|--------------------------------------------------------------------------|
E|--------------------------------------------------------------------------|

e|-------------|
B|-------------|
G|--16-16vvvv--|
D|-------------|
A|-------------|
E|-------------|


repeat Pre-solo

repeat Chorus 4x.


[Final]

e|--------------------------------------------------------------|
B|--------------------------------------------------------------|
G|---9-9---------9--5-5---------5-----------------7-7---------7-|  4x.
D|---9-9---------9--5-5---------5--5-5---------5--7-7---------7-|
A|---7-7-7-7-7-7-7--3-3-3-3-3-3-3--5-5---------5--5-5-5-5-5-5-5-|
E|---------------------------------3-3-3-3-3-3-3----------------|

 2nd Guitar(in for 3x)
e|--------------------------------------------|
B|--------------------------------------------|
G|--------------------------------------------|
D|--5-4-5-7vv--5-4-5-7vv--5-4-5-7vv---5-4-2-0-|
A|--------------------------------------------|
E|--------------------------------------------|

 3trd Guitar(in for 3x)
e|-------------------------------------------------------------|
A|-------------------------------------------------------------|
G|--12-11-12-14vv--12-11-12-14vv--12-11-12-14vv--12-11-9-7vvvv-|
D|-------------------------------------------------------------|
A|-------------------------------------------------------------|
E|-------------------------------------------------------------|

************************************

h: hammer on
p: pull off
P.M.:  palm muted note
v : tremolo ou vibrato
bF:  full bend

************************************
Suggest correction
comments
print report bad tab
24 comments total. Showing first comments.
+6 reply
Shrek56 10 Aug 11, 2004 08:00 PM

on the pre chorus, instead of playing it your way play it like this:

|-------------------------------------------------------------------|
|-------------------------------------------------------------------|
|--7-let--7/9--9/5-5--12-12-12-11-9-7--7-let--7/9-9/5-5-5---7-------|
|--7-ring-7/9--9/5-5--12-12-12-11-9-7--7-ring-7/9-9/5-5-5-5-7-------|
|--5------5/7--7/3-3--10-10-10-9--7-5--5------5/7-7/3-3-3-5-5-------|
|---------------------------------------------------------3---------|

0 reply
culls.2000 10 Mar 28, 2005 07:00 PM

i agree with shrek56 but otherwise a great tab, really accurate

+1 reply
AmandaR*420 31 Jul 13, 2005 08:00 PM

iron maiden kicks ass
good tab

guest
You may want to rate the tab now too:
select rating
Wanna post a correction for this tab? Suggest correction