Oops, an error
Loading. Please wait.

The Wicker Man tab

version 5
1,819 views 27 this week
no commentswrite comment
1 2 3 4 5
x 12
add to favorites
×
Save as Personal and add changes to this tab that will be seen only by you. Learn more ›
×
You can save this tab as Personal to edit and correct it or add notes. All changes will be seen only by you. Learn more »
launch autoscroll
font size
0
reset
how to read this tab
guitar tuner
backing track
0:00
0:00
edit
Autoscroll
slow
fast
+/-
esc
set tempo
stop
Author
Difficulty
                                The Wicker Man                                  


                                 Iron Maiden

Instruments:
- G #1
- G #2
- G #3
- Voice Melody
- Chorus


Guitar #1:

Adrian Smith



          Intro                                             
          ^        >  v PM PM PM PM PM >  v PM PM PM PM PM  
     S    S        E  S S  S  S  S  S  E  S S  S  S  S  S   
E||----|--------|------------------------------------------|
B||----|--------|------------------------------------------|
G||----|--x-----|--9--9----------------9--9----------------|
D||----|--x-----|--9--9----------------9--9----------------|
A||----|--x-----|--7--7----------------7--7----------------|
E||----|--------|-------0--0--0--0--0-------0--0--0--0--0--|


  >  v PM PM PM PM PM >  > v  >   >  v  
  E  S S  S  S  S  S  E  S S  E   S  S  
---------------------------------------|
---------------------------------------|
--9--9----------------5--5-x-12--12--x-|
--9--9----------------5--5-x-12--12--x-|
--7--7----------------3--3-x-10--10--x-|
-------0--0--0--0--0-------------------|


  >  v PM PM PM PM PM >  v PM PM PM PM PM  
  E  S S  S  S  S  S  E  S S  S  S  S  S   
------------------------------------------|
------------------------------------------|
--9--9----------------9--9----------------|
--9--9----------------9--9----------------|
--7--7----------------7--7----------------|
-------0--0--0--0--0-------0--0--0--0--0--|


  >  v PM PM PM PM PM >  > v  >   >  v  
  E  S S  S  S  S  S  E  S S  E   S  S  
---------------------------------------|
---------------------------------------|
--9--9----------------5--5-x-12--12--x-|
--9--9----------------5--5-x-12--12--x-|
--7--7----------------3--3-x-10--10--x-|
-------0--0--0--0--0-------------------|


  >  v PM PM PM PM PM >  v PM PM PM PM PM  
  E  S S  S  S  S  S  E  S S  S  S  S  S   
------------------------------------------|
------------------------------------------|
--9--9----------------9--9----------------|
--9--9----------------9--9----------------|
--7--7----------------7--7----------------|
-------0--0--0--0--0-------0--0--0--0--0--|


  >  v PM PM PM PM PM >  > v  >   >  v  
  E  S S  S  S  S  S  E  S S  E   S  S  
---------------------------------------|
---------------------------------------|
--9--9----------------5--5-x-12--12--x-|
--9--9----------------5--5-x-12--12--x-|
--7--7----------------3--3-x-10--10--x-|
-------0--0--0--0--0-------------------|


  >  v PM PM PM PM PM >  v PM PM PM PM PM  
  E  S S  S  S  S  S  E  S S  S  S  S  S   
------------------------------------------|
------------------------------------------|
--9--9----------------9--9----------------|
--9--9----------------9--9----------------|
--7--7----------------7--7----------------|
-------0--0--0--0--0-------0--0--0--0--0--|


  >  v PM PM PM PM PM >  > v  >   >  v  
  E  S S  S  S  S  S  E  S S  E   S  S  
---------------------------------------|
---------------------------------------|
--9--9----------------5--5-x-12--12--x-|
--9--9----------------5--5-x-12--12--x-|
--7--7----------------3--3-x-10--10--x-|
-------0--0--0--0--0-------------------|


  Verso                                       
  >     v PM PM PM PM PM >  v PM PM PM PM PM  
  E     S S  S  S  S  S  E  S S  S  S  S  S   
---------------------------------------------|
---------------------------------------------|
--9-----9----------------9--9----------------|
--9-----9----------------9--9----------------|
--7-----7----------------7--7----------------|
----------0--0--0--0--0-------0--0--0--0--0--|


  >  v PM PM PM PM PM >  > v  >   >  v  
  E  S S  S  S  S  S  E  S S  E   S  S  
---------------------------------------|
---------------------------------------|
--9--9----------------5--5-x-12--12--x-|
--9--9----------------5--5-x-12--12--x-|
--7--7----------------3--3-x-10--10--x-|
-------0--0--0--0--0-------------------|


  >  v PM PM PM PM PM >  v PM PM PM PM PM  
  E  S S  S  S  S  S  E  S S  S  S  S  S   
------------------------------------------|
------------------------------------------|
--9--9----------------9--9----------------|
--9--9----------------9--9----------------|
--7--7----------------7--7----------------|
-------0--0--0--0--0-------0--0--0--0--0--|


  >  v PM PM PM PM PM >  > v  >   >  v  
  E  S S  S  S  S  S  E  S S  E   S  S  
---------------------------------------|
---------------------------------------|
--9--9----------------5--5-x-12--12--x-|
--9--9----------------5--5-x-12--12--x-|
--7--7----------------3--3-x-10--10--x-|
-------0--0--0--0--0-------------------|


  >  v PM PM PM PM PM >  v PM PM PM PM PM  
  E  S S  S  S  S  S  E  S S  S  S  S  S   
------------------------------------------|
------------------------------------------|
--9--9----------------9--9----------------|
--9--9----------------9--9----------------|
--7--7----------------7--7----------------|
-------0--0--0--0--0-------0--0--0--0--0--|


  >  v PM PM PM PM PM >  > v  >   >  v  
  E  S S  S  S  S  S  E  S S  E   S  S  
---------------------------------------|
---------------------------------------|
--9--9----------------5--5-x-12--12--x-|
--9--9----------------5--5-x-12--12--x-|
--7--7----------------3--3-x-10--10--x-|
-------0--0--0--0--0-------------------|


  >  v PM PM PM PM PM >  v PM PM PM PM PM  
  E  S S  S  S  S  S  E  S S  S  S  S  S   
------------------------------------------|
------------------------------------------|
--9--9----------------9--9----------------|
--9--9----------------9--9----------------|
--7--7----------------7--7----------------|
-------0--0--0--0--0-------0--0--0--0--0--|


                                          Pre-Coro             
  >  v PM PM PM PM PM >  > v  >   >  v                     v   
  E  S S  S  S  S  S  E  S S  E   S  S    H.           S S E   
---------------------------------------|----------------------|
---------------------------------------|----------------------|
--9--9----------------5--5-x-12--12--x-|--7------------L-7-9--|
--9--9----------------5--5-x-12--12--x-|--7------------L-7-9--|
--7--7----------------3--3-x-10--10--x-|--5------------L-5-7--|
-------0--0--0--0--0-------------------|----------------------|


                 v                             v                   v     v   
  H        S  S  E   E  E     H.           S S E     H         S S E.  S E   
---------------------------|----------------------|-------------------------|
---------------------------|----------------------|-------------------------|
--5--------L-12-12--11--9--|--7------------L-7-9--|--5---------L-------5-5--|
--5--------L-12-12--11--9--|--7------------L-7-9--|--5---------L-5-5---5-5--|
--3--------L-10-10---9--7--|--5------------L-5-7--|--3---------L-5-5---3-3--|
---------------------------|----------------------|--------------3-3--------|


                   v                    v                             v   
  H.           S S E     H        S  S  E   E  E     H.           S S E   
----------------------|---------------------------|----------------------|
----------------------|---------------------------|----------------------|
--7------------L-7-9--|--5--------L-12-12--11--9--|--7------------L-7-9--|
--7------------L-7-9--|--5--------L-12-12--11--9--|--7------------L-7-9--|
--5------------L-5-7--|--3--------L-10-10---9--7--|--5------------L-5-7--|
----------------------|---------------------------|----------------------|


                              Coro A                            
                v     v       ^      v ^ v ^     ^ v ^ v ^      
  H         S S E.  S E  S    S      S S S E  E  S S S S E  E   
---------------------------|-----------------------------------|
---------------------------|-----------------------------------|
--5---------L-------7-7--x-|--9------9-9-9-9-----5-5-5-5-5-----|
--5---------L-5-5---7-7--x-|--9------9-9-9-9-----5-5-5-5-5-----|
--3---------L-5-5---5-5--x-|--7------7-7-7-7-----3-3-3-3-3-----|
--------------3-3----------|-----------------------------------|


  ^ v ^ v ^     ^ v ^ v ^        ^ v ^ v ^      ^  v  ^  v  ^      
  S S S S E  E  S S S S E  E     S S S S E  E   S  S  S  S  E  E   
------------------------------|-----------------------------------|
------------------------------|-----------------------------------|
------------------------------|--9-9-9-9-9-----12-12-12-12-12-----|
--5-5-5-5-5-----7-7-7-7-7-----|--9-9-9-9-9-----12-12-12-12-12-----|
--5-5-5-5-5-----7-7-7-7-7-----|--7-7-7-7-7-----10-10-10-10-10-----|
--3-3-3-3-3-----5-5-5-5-5-----|-----------------------------------|


  ^ v ^ v ^     ^ v ^   ^ v ^      ^ v ^ v ^     ^ v ^ v ^      
  S S S S E  E  S S S S S S S S    S S S S E  E  S S S S E  E   
--------------------------------|------------------------------|
--------------------------------|------------------------------|
--5-5-5-5-5---------------------|--9-9-9-9-9-----5-5-5-5-5-----|
--5-5-5-5-5-----5-5-5---7-7-7---|--9-9-9-9-9-----5-5-5-5-5-----|
--3-3-3-3-3-----5-5-5---7-7-7---|--7-7-7-7-7-----3-3-3-3-3-----|
----------------3-3-3---5-5-5---|------------------------------|


  ^ v ^ v ^     ^ v ^ v ^        ^ v ^ v ^      ^  v  ^  v  ^      
  S S S S E  E  S S S S E  E     S S S S E  E   S  S  S  S  E  E   
------------------------------|-----------------------------------|
------------------------------|-----------------------------------|
------------------------------|--9-9-9-9-9-----12-12-12-12-12-----|
--5-5-5-5-5-----7-7-7-7-7-----|--9-9-9-9-9-----12-12-12-12-12-----|
--5-5-5-5-5-----7-7-7-7-7-----|--7-7-7-7-7-----10-10-10-10-10-----|
--3-3-3-3-3-----5-5-5-5-5-----|-----------------------------------|


                                   Verso                                       
  ^ v ^ v ^     ^ v ^   ^ v ^      >     v PM PM PM PM PM >  v PM PM PM PM PM  
  S S S S E  E  S S S S S S S S    E     S S  S  S  S  S  E  S S  S  S  S  S   
--------------------------------|---------------------------------------------|
--------------------------------|---------------------------------------------|
--5-5-5-5-5---------------------|--9-----9----------------9--9----------------|
--5-5-5-5-5-----5-5-5---7-7-7---|--9-----9----------------9--9----------------|
--3-3-3-3-3-----5-5-5---7-7-7---|--7-----7----------------7--7----------------|
----------------3-3-3---5-5-5---|----------0--0--0--0--0-------0--0--0--0--0--|


  >  v PM PM PM PM PM >  > v  >   >  v  
  E  S S  S  S  S  S  E  S S  E   S  S  
---------------------------------------|
---------------------------------------|
--9--9----------------5--5-x-12--12--x-|
--9--9----------------5--5-x-12--12--x-|
--7--7----------------3--3-x-10--10--x-|
-------0--0--0--0--0-------------------|


  >  v PM PM PM PM PM >  v PM PM PM PM PM  
  E  S S  S  S  S  S  E  S S  S  S  S  S   
------------------------------------------|
------------------------------------------|
--9--9----------------9--9----------------|
--9--9----------------9--9----------------|
--7--7----------------7--7----------------|
-------0--0--0--0--0-------0--0--0--0--0--|


  >  v PM PM PM PM PM >  > v  >   >  v  
  E  S S  S  S  S  S  E  S S  E   S  S  
---------------------------------------|
---------------------------------------|
--9--9----------------5--5-x-12--12--x-|
--9--9----------------5--5-x-12--12--x-|
--7--7----------------3--3-x-10--10--x-|
-------0--0--0--0--0-------------------|


  >  v PM PM PM PM PM >  v PM PM PM PM PM  
  E  S S  S  S  S  S  E  S S  S  S  S  S   
------------------------------------------|
------------------------------------------|
--9--9----------------9--9----------------|
--9--9----------------9--9----------------|
--7--7----------------7--7----------------|
-------0--0--0--0--0-------0--0--0--0--0--|


  >  v PM PM PM PM PM >  > v  >   >  v  
  E  S S  S  S  S  S  E  S S  E   S  S  
---------------------------------------|
---------------------------------------|
--9--9----------------5--5-x-12--12--x-|
--9--9----------------5--5-x-12--12--x-|
--7--7----------------3--3-x-10--10--x-|
-------0--0--0--0--0-------------------|


  >  v PM PM PM PM PM >  v PM PM PM PM PM  
  E  S S  S  S  S  S  E  S S  S  S  S  S   
------------------------------------------|
------------------------------------------|
--9--9----------------9--9----------------|
--9--9----------------9--9----------------|
--7--7----------------7--7----------------|
-------0--0--0--0--0-------0--0--0--0--0--|


                                          Pre-Coro             
  >  v PM PM PM PM PM >  > v  >   >  v                     v   
  E  S S  S  S  S  S  E  S S  E   S  S    H.           S S E   
---------------------------------------|----------------------|
---------------------------------------|----------------------|
--9--9----------------5--5-x-12--12--x-|--7------------L-7-9--|
--9--9----------------5--5-x-12--12--x-|--7------------L-7-9--|
--7--7----------------3--3-x-10--10--x-|--5------------L-5-7--|
-------0--0--0--0--0-------------------|----------------------|


                 v                             v                   v     v   
  H        S  S  E   E  E     H.           S S E     H         S S E.  S E   
---------------------------|----------------------|-------------------------|
---------------------------|----------------------|-------------------------|
--5--------L-12-12--11--9--|--7------------L-7-9--|--5---------L-------5-5--|
--5--------L-12-12--11--9--|--7------------L-7-9--|--5---------L-5-5---5-5--|
--3--------L-10-10---9--7--|--5------------L-5-7--|--3---------L-5-5---3-3--|
---------------------------|----------------------|--------------3-3--------|


                   v                    v                             v   
  H.           S S E     H        S  S  E   E  E     H.           S S E   
----------------------|---------------------------|----------------------|
----------------------|---------------------------|----------------------|
--7------------L-7-9--|--5--------L-12-12--11--9--|--7------------L-7-9--|
--7------------L-7-9--|--5--------L-12-12--11--9--|--7------------L-7-9--|
--5------------L-5-7--|--3--------L-10-10---9--7--|--5------------L-5-7--|
----------------------|---------------------------|----------------------|


                              Coro A                            
                v     v       ^      v ^ v ^     ^ v ^ v ^      
  H         S S E.  S E  S    S      S S S E  E  S S S S E  E   
---------------------------|-----------------------------------|
---------------------------|-----------------------------------|
--5---------L-------7-7--x-|--9------9-9-9-9-----5-5-5-5-5-----|
--5---------L-5-5---7-7--x-|--9------9-9-9-9-----5-5-5-5-5-----|
--3---------L-5-5---5-5--x-|--7------7-7-7-7-----3-3-3-3-3-----|
--------------3-3----------|-----------------------------------|


  ^ v ^ v ^     ^ v ^ v ^        ^ v ^ v ^      ^  v  ^  v  ^      
  S S S S E  E  S S S S E  E     S S S S E  E   S  S  S  S  E  E   
------------------------------|-----------------------------------|
------------------------------|-----------------------------------|
------------------------------|--9-9-9-9-9-----12-12-12-12-12-----|
--5-5-5-5-5-----7-7-7-7-7-----|--9-9-9-9-9-----12-12-12-12-12-----|
--5-5-5-5-5-----7-7-7-7-7-----|--7-7-7-7-7-----10-10-10-10-10-----|
--3-3-3-3-3-----5-5-5-5-5-----|-----------------------------------|


  ^ v ^ v ^     ^ v ^   ^ v ^      ^ v ^ v ^     ^ v ^ v ^      
  S S S S E  E  S S S S S S S S    S S S S E  E  S S S S E  E   
--------------------------------|------------------------------|
--------------------------------|------------------------------|
--5-5-5-5-5---------------------|--9-9-9-9-9-----5-5-5-5-5-----|
--5-5-5-5-5-----5-5-5---7-7-7---|--9-9-9-9-9-----5-5-5-5-5-----|
--3-3-3-3-3-----5-5-5---7-7-7---|--7-7-7-7-7-----3-3-3-3-3-----|
----------------3-3-3---5-5-5---|------------------------------|


  ^ v ^ v ^     ^ v ^ v ^        ^ v ^ v ^      ^  v  ^  v  ^      
  S S S S E  E  S S S S E  E     S S S S E  E   S  S  S  S  E  E   
------------------------------|-----------------------------------|
------------------------------|-----------------------------------|
------------------------------|--9-9-9-9-9-----12-12-12-12-12-----|
--5-5-5-5-5-----7-7-7-7-7-----|--9-9-9-9-9-----12-12-12-12-12-----|
--5-5-5-5-5-----7-7-7-7-7-----|--7-7-7-7-7-----10-10-10-10-10-----|
--3-3-3-3-3-----5-5-5-5-5-----|-----------------------------------|


                                   Interludio                     
  ^ v ^ v ^     ^ v ^   ^ v ^                 PM PM  PM           
  S S S S E  E  S S S S S S S S    Q          S  S   S H          
--------------------------------|--------------------------------|
--------------------------------|--------------------------------|
--5-5-5-5-5---------------------|--------------------------------|
--5-5-5-5-5-----5-5-5---7-7-7---|--------------------------------|
--3-3-3-3-3-----5-5-5---7-7-7---|--7~---------7--9--10-7~--------|
----------------3-3-3---5-5-5---|--------------------------------|


  PM PM  PMPM PM  PMPM PM  PMPM PM  PMPM PM  PM           PM PM  PM             
  E  S   S S  S   S S  S   S S  S   S S  S   S    Q     S S  S   S Q.      S S  
-----------------------------------------------|-----------------------------0-|
-----------------------------------------------|-------------------------------|
-----------------------------------------------|-------------------------------|
-----------7--------7--9-----7--9--10-9--7-----|-------------------------------|
--7--9--10----9--10-------10----------------10-|--7~----L-7--9--10-7~------L---|
-----------------------------------------------|-------------------------------|


                                                         PM PM  PM           
  S  S  S S S  S  S S S S  S  S  S  S  S  S     Q      S S  S   S H          
--0-12-10-0-0-14-12-0-0-0-14-15-17-15-14----|-------------------------------|
-----------------------------------------17-|--17~-----L--------------------|
--------------------------------------------|-------------------------------|
--------------------------------------------|-------------------------------|
--------------------------------------------|------------7--9--10-7~--------|
--------------------------------------------|-------------------------------|


  PM PM  PMPM PM  PMPM PM  PMPM PM  PMPM PM  PM           PM PM  PM             
  E  S   S S  S   S S  S   S S  S   S S  S   S    Q     S S  S   S Q.      S S  
-----------------------------------------------|-----------------------------0-|
-----------------------------------------------|-------------------------------|
-----------------------------------------------|-------------------------------|
-----------7--------7--9-----7--9--10-9--7-----|-------------------------------|
--7--9--10----9--10-------10----------------10-|--7~----L-7--9--10-7~------L---|
-----------------------------------------------|-------------------------------|


  S  S  S S S  S  S S S S  S  S  S  S  S  E   
--0-12-10-0-0-14-12-0-0-0-14-15-17-15-14-----|
-----------------------------------------17--|
---------------------------------------------|
---------------------------------------------|
---------------------------------------------|
---------------------------------------------|


   Solo Adrian Smith                               
                              SH                   
                                    |--3--|        
   Q                 Q        Q     S  S  S  S  S  
------------------------------------7h-8p-7-10p-7-|
---L----------------10b----<>10b------------------|
--------------------------------------------------|
--------------------------------------------------|
--------------------------------------------------|
--------------------------------------------------|


                                                             SH         SH      
   S S S S  S S S S  S S S S Q         E   S S  S S  S   S   S S S E    S  S S  
-----------------------------------|-------7-----------------------------------|
--10-0-8-0-10-0-8-0-10-0---0-------|--10b----7-10-7----------------------------|
-------------------------9---8~----|----------------10b-10-<>9-7---9--<>7~-----|
-----------------------------------|-----------------------------9---------4-4-|
-----------------------------------|-------------------------------------------|
-----------------------------------|-------------------------------------------|


  S S S S S S S S Q      E   E   
--------------------------------|
--------------------------------|
--------------------------------|
--7-5-4---5-5-4-----------------|
--------7-------7-6~----12\-----|
--------------------------------|


  |--3-|  |--3--| |--3-|  |--3--| |--3-|  |--3--| |--3-|  |--3--|  
  S S  S  S  S  S S S  S  S  S  S S S  S  S  S  S S S  S  S  S  S  
--2---------------2---------------3---------------3---------------|
----4p-0h-4p-0h-4---4p-0h-4p-0h-4---5p-0h-5p-0h-5---5p-0h-5p-0h-5-|
------------------------------------------------------------------|
------------------------------------------------------------------|
------------------------------------------------------------------|
------------------------------------------------------------------|


  |--3-|  |--3--| |--3-|  |--3--| |--3-|  |--3--| |3|       
  S S  S  S  S  S S S  S  S  S  S S S  S  S  S  S S E   E   
--5---------------5---------------7---------------7--------|
----7p-0h-7p-0h-7---7p-0h-7p-0h-7---8p-0h-8p-0h-8---8/--L--|
-----------------------------------------------------------|
-----------------------------------------------------------|
-----------------------------------------------------------|
-----------------------------------------------------------|


   |---3---|  |---3---|   |---3--|  |--3--|  |---3---|  |--3--|  |---3---|      
   S   S   S  S   S   S   S   S  S  S  S  S  S   S   S  S  S  S  S   S   S  E   
-------------17h-19h-20p-19p-17----17------------------17-----------------------
--17h-19h-20--------------------20----20-19-17h-19h-20----20-19-17h-20p-19-17~--
--------------------------------------------------------------------------------
--------------------------------------------------------------------------------
--------------------------------------------------------------------------------
--------------------------------------------------------------------------------


   |---3---|  |---3---|   |---3--|  |--3--|  |---3---|   |--3--|         
   S   S   S  S   S   S   S   S  S  S  S  S  S   S   S   S  S  S  Q      
-------------17h-19h-20p-19p-17----17-----------------------------------|
--17h-19h-20--------------------20----20-19-17h-20p-19p-17--------------|
-----------------------------------------------------------19-17-16~----|
------------------------------------------------------------------------|
------------------------------------------------------------------------|
------------------------------------------------------------------------|


  Interludio                     
             PM PM  PM           
  Q          S  S   S H          
--------------------------------|
--------------------------------|
--------------------------------|
--------------------------------|
--7~---------7--9--10-7~--------|
--------------------------------|


  PM PM  PMPM PM  PMPM PM  PMPM PM  PMPM PM  PM           PM PM  PM             
  E  S   S S  S   S S  S   S S  S   S S  S   S    Q     S S  S   S Q.      S S  
-----------------------------------------------|-----------------------------0-|
-----------------------------------------------|-------------------------------|
-----------------------------------------------|-------------------------------|
-----------7--------7--9-----7--9--10-9--7-----|-------------------------------|
--7--9--10----9--10-------10----------------10-|--7~----L-7--9--10-7~------L---|
-----------------------------------------------|-------------------------------|


                                                         PM PM  PM           
  S  S  S S S  S  S S S S  S  S  S  S  S  S     Q      S S  S   S H          
--0-12-10-0-0-14-12-0-0-0-14-15-17-15-14----|-------------------------------|
-----------------------------------------17-|--17~-----L--------------------|
--------------------------------------------|-------------------------------|
--------------------------------------------|-------------------------------|
--------------------------------------------|------------7--9--10-7~--------|
--------------------------------------------|-------------------------------|


  PM PM  PMPM PM  PMPM PM  PMPM PM  PMPM PM  PM           PM PM  PM             
  E  S   S S  S   S S  S   S S  S   S S  S   S    Q     S S  S   S Q.      S S  
-----------------------------------------------|-----------------------------0-|
-----------------------------------------------|-------------------------------|
-----------------------------------------------|-------------------------------|
-----------7--------7--9-----7--9--10-9--7-----|-------------------------------|
--7--9--10----9--10-------10----------------10-|--7~----L-7--9--10-7~------L---|
-----------------------------------------------|-------------------------------|


  S  S  S S S  S  S S S S  S  S  S  S  S  E    
--0-12-10-0-0-14-12-0-0-0-14-15-17-15-14------|
-----------------------------------------17~--|
----------------------------------------------|
----------------------------------------------|
----------------------------------------------|
----------------------------------------------|


  Coro A                                                           
  ^      v ^ v ^     ^ v ^ v ^        ^ v ^ v ^     ^ v ^ v ^      
  S      S S S E  E  S S S S E  E     S S S S E  E  S S S S E  E   
-----------------------------------|------------------------------|
-----------------------------------|------------------------------|
--9------9-9-9-9-----5-5-5-5-5-----|------------------------------|
--9------9-9-9-9-----5-5-5-5-5-----|--5-5-5-5-5-----7-7-7-7-7-----|
--7------7-7-7-7-----3-3-3-3-3-----|--5-5-5-5-5-----7-7-7-7-7-----|
-----------------------------------|--3-3-3-3-3-----5-5-5-5-5-----|


  ^ v ^ v ^      ^  v  ^  v  ^        ^ v ^ v ^     ^ v ^   ^ v ^    
  S S S S E  E   S  S  S  S  E  E     S S S S E  E  S S S S S S S S  
-----------------------------------|--------------------------------|
-----------------------------------|--------------------------------|
--9-9-9-9-9-----12-12-12-12-12-----|--5-5-5-5-5---------------------|
--9-9-9-9-9-----12-12-12-12-12-----|--5-5-5-5-5-----5-5-5---7-7-7---|
--7-7-7-7-7-----10-10-10-10-10-----|--3-3-3-3-3-----5-5-5---7-7-7---|
-----------------------------------|----------------3-3-3---5-5-5---|


  ^ v ^ v ^     ^ v ^ v ^        ^ v ^ v ^     ^ v ^ v ^      
  S S S S E  E  S S S S E  E     S S S S E  E  S S S S E  E   
------------------------------|------------------------------|
------------------------------|------------------------------|
--9-9-9-9-9-----5-5-5-5-5-----|------------------------------|
--9-9-9-9-9-----5-5-5-5-5-----|--5-5-5-5-5-----7-7-7-7-7-----|
--7-7-7-7-7-----3-3-3-3-3-----|--5-5-5-5-5-----7-7-7-7-7-----|
------------------------------|--3-3-3-3-3-----5-5-5-5-5-----|


  ^ v ^ v ^      ^  v  ^  v  ^        ^ v ^ v ^     ^ v ^   ^ v ^    
  S S S S E  E   S  S  S  S  E  E     S S S S E  E  S S S S S S S S  
-----------------------------------|--------------------------------|
-----------------------------------|--------------------------------|
--9-9-9-9-9-----12-12-12-12-12-----|--5-5-5-5-5---------------------|
--9-9-9-9-9-----12-12-12-12-12-----|--5-5-5-5-5-----5-5-5---7-7-7---|
--7-7-7-7-7-----10-10-10-10-10-----|--3-3-3-3-3-----5-5-5---7-7-7---|
-----------------------------------|----------------3-3-3---5-5-5---|


  ^ v ^ v ^     ^ v ^ v ^        ^ v ^ v ^     ^ v ^ v ^      
  S S S S E  E  S S S S E  E     S S S S E  E  S S S S E  E   
------------------------------|------------------------------|
------------------------------|------------------------------|
--9-9-9-9-9-----5-5-5-5-5-----|------------------------------|
--9-9-9-9-9-----5-5-5-5-5-----|--5-5-5-5-5-----7-7-7-7-7-----|
--7-7-7-7-7-----3-3-3-3-3-----|--5-5-5-5-5-----7-7-7-7-7-----|
------------------------------|--3-3-3-3-3-----5-5-5-5-5-----|


  ^ v ^ v ^      ^  v  ^  v  ^        ^ v ^ v ^     ^ v ^   ^ v ^    
  S S S S E  E   S  S  S  S  E  E     S S S S E  E  S S S S S S S S  
-----------------------------------|--------------------------------|
-----------------------------------|--------------------------------|
--9-9-9-9-9-----12-12-12-12-12-----|--5-5-5-5-5---------------------|
--9-9-9-9-9-----12-12-12-12-12-----|--5-5-5-5-5-----5-5-5---7-7-7---|
--7-7-7-7-7-----10-10-10-10-10-----|--3-3-3-3-3-----5-5-5---7-7-7---|
-----------------------------------|----------------3-3-3---5-5-5---|


  ^ v ^ v ^     ^ v ^ v ^        ^ v ^ v ^     ^ v ^ v ^      
  S S S S E  E  S S S S E  E     S S S S E  E  S S S S E  E   
------------------------------|------------------------------|
------------------------------|------------------------------|
--9-9-9-9-9-----5-5-5-5-5-----|------------------------------|
--9-9-9-9-9-----5-5-5-5-5-----|--5-5-5-5-5-----7-7-7-7-7-----|
--7-7-7-7-7-----3-3-3-3-3-----|--5-5-5-5-5-----7-7-7-7-7-----|
------------------------------|--3-3-3-3-3-----5-5-5-5-5-----|


  ^ v ^ v ^      ^  v  ^  v  ^        ^ v ^ v ^     ^ v ^   ^ v ^    
  S S S S E  E   S  S  S  S  E  E     S S S S E  E  S S S S S S S S  
-----------------------------------|--------------------------------|
-----------------------------------|--------------------------------|
--9-9-9-9-9-----12-12-12-12-12-----|--5-5-5-5-5---------------------|
--9-9-9-9-9-----12-12-12-12-12-----|--5-5-5-5-5-----5-5-5---7-7-7---|
--7-7-7-7-7-----10-10-10-10-10-----|--3-3-3-3-3-----5-5-5---7-7-7---|
-----------------------------------|----------------3-3-3---5-5-5---|


  Coro B                                                                        
  W                   W                   W                   W                 
-------------------|-------------------|-------------------|-------------------|
-------------------|-------------------|-------------------|-------------------|
--9----------------|--5----------------|-------------------|--7----------------|
--9----------------|--5----------------|--5----------------|--7----------------|
--7----------------|--3----------------|--5----------------|--5----------------|
-------------------|-------------------|--3----------------|-------------------|


  W                   W                   W                   W                 
-------------------|-------------------|-------------------|-------------------|
-------------------|-------------------|-------------------|-------------------|
--9----------------|--5----------------|-------------------|--7----------------|
--9----------------|--5----------------|--5----------------|--7----------------|
--7----------------|--3----------------|--5----------------|--5----------------|
-------------------|-------------------|--3----------------|-------------------|


  Outro                                                  
  Q      E  Q     E   Q        Q     E  Q     E   Q      
----------------------------|---------------------------|
----------------------------|---------------------------|
----------------------------|---------------------------|
---------9--7-----9--10~----|--------9--7-----9--10~----|
--------10--9----10--12~----|-------10--9----10--12~----|
----------------------------|---------------------------|


  Q     E  Q     E   Q        Q     E  Q    E  Q      
---------------------------|-------------------------|
---------------------------|-------------------------|
---------------------------|-------------------------|
--------9--7-----9--10~----|--------9--7----5--4~----|
-------10--9----10--12~----|-------10--9----7--5~----|
---------------------------|-------------------------|


  Q     E  Q     E   Q        Q     E  Q     E   Q      
---------------------------|---------------------------|
---------------------------|---------------------------|
---------------------------|---------------------------|
--------9--7-----9--10~----|--------9--7-----9--10~----|
-------10--9----10--12~----|-------10--9----10--12~----|
---------------------------|---------------------------|


  Q     E  Q     E   Q        Q     Q.     Q.        W                 
---------------------------|----------------------|-------------------|
---------------------------|----------------------|-------------------|
---------------------------|----------------------|-------------------|
--------9--7-----9--10~----|--------9------7------|--4----------------|
-------10--9----10--12~----|-------10------9------|--5----------------|
---------------------------|----------------------|-------------------|


  W                  
-------------------||
-------------------||
-------------------||
--L----------------||
--L----------------||
-------------------||




Guitar #2:

Dave Murray

          Intro                                          
     S    S        W                   W                 
E||----|--------|-------------------|-------------------|
B||----|--------|-------------------|-------------------|
G||----|--------|-------------------|-------------------|
D||----|--------|-------------------|-------------------|
A||----|--------|-------------------|-------------------|
E||----|--------|-------------------|-------------------|


     v           v              v             v         v  
  E  S S Q    E  S S Q       E  S S Q    E  S S  E   S  S  
--------------------------|-------------------------------|
--------------------------|-------------------------------|
--------------------------|-------------------------------|
--9--9--------9--9--------|--9--9--------5--5-x-12--12--x-|
--7--7--------7--7--------|--7--7--------3--3-x-10--10--x-|
--------------------------|-------------------------------|


     v PM PM PM PM PM    v PM PM PM PM PM  
  E  S S  S  S  S  S  E  S S  S  S  S  S   
------------------------------------------|
------------------------------------------|
------------------------------------------|
--9--9----------------9--9----------------|
--7--7----------------7--7----------------|
-------0--0--0--0--0-------0--0--0--0--0--|


     v PM PM PM PM PM      v         v  
  E  S S  S  S  S  S  E  S S  E   S  S  
---------------------------------------|
---------------------------------------|
---------------------------------------|
--9--9----------------5--5-x-12--12--x-|
--7--7----------------3--3-x-10--10--x-|
-------0--0--0--0--0-------------------|


     v PM PM PM PM PM    v PM PM PM PM PM  
  E  S S  S  S  S  S  E  S S  S  S  S  S   
------------------------------------------|
------------------------------------------|
------------------------------------------|
--9--9----------------9--9----------------|
--7--7----------------7--7----------------|
-------0--0--0--0--0-------0--0--0--0--0--|


     v PM PM PM PM PM      v         v  
  E  S S  S  S  S  S  E  S S  E   S  S  
---------------------------------------|
---------------------------------------|
---------------------------------------|
--9--9----------------5--5-x-12--12--x-|
--7--7----------------3--3-x-10--10--x-|
-------0--0--0--0--0-------------------|


  Verso                                       
        v PM PM PM PM PM    v PM PM PM PM PM  
  E     S S  S  S  S  S  E  S S  S  S  S  S   
---------------------------------------------|
---------------------------------------------|
---------------------------------------------|
--9-----9----------------9--9----------------|
--7-----7----------------7--7----------------|
----------0--0--0--0--0-------0--0--0--0--0--|


     v PM PM PM PM PM      v         v  
  E  S S  S  S  S  S  E  S S  E   S  S  
---------------------------------------|
---------------------------------------|
---------------------------------------|
--9--9----------------5--5-x-12--12--x-|
--7--7----------------3--3-x-10--10--x-|
-------0--0--0--0--0-------------------|


     v PM PM PM PM PM    v PM PM PM PM PM  
  E  S S  S  S  S  S  E  S S  S  S  S  S   
------------------------------------------|
------------------------------------------|
------------------------------------------|
--9--9----------------9--9----------------|
--7--7----------------7--7----------------|
-------0--0--0--0--0-------0--0--0--0--0--|


     v PM PM PM PM PM      v         v  
  E  S S  S  S  S  S  E  S S  E   S  S  
---------------------------------------|
---------------------------------------|
---------------------------------------|
--9--9----------------5--5-x-12--12--x-|
--7--7----------------3--3-x-10--10--x-|
-------0--0--0--0--0-------------------|


     v PM PM PM PM PM    v PM PM PM PM PM  
  E  S S  S  S  S  S  E  S S  S  S  S  S   
------------------------------------------|
------------------------------------------|
------------------------------------------|
--9--9----------------9--9----------------|
--7--7----------------7--7----------------|
-------0--0--0--0--0-------0--0--0--0--0--|


     v PM PM PM PM PM      v         v  
  E  S S  S  S  S  S  E  S S  E   S  S  
---------------------------------------|
---------------------------------------|
---------------------------------------|
--9--9----------------5--5-x-12--12--x-|
--7--7----------------3--3-x-10--10--x-|
-------0--0--0--0--0-------------------|


     v PM PM PM PM PM    v PM PM PM PM PM  
  E  S S  S  S  S  S  E  S S  S  S  S  S   
------------------------------------------|
------------------------------------------|
------------------------------------------|
--9--9----------------9--9----------------|
--7--7----------------7--7----------------|
-------0--0--0--0--0-------0--0--0--0--0--|


                                          Pre-Coro             
     v PM PM PM PM PM      v         v                     v   
  E  S S  S  S  S  S  E  S S  E   S  S    H.           S S E   
---------------------------------------|----------------------|
---------------------------------------|----------------------|
---------------------------------------|----------------------|
--9--9----------------5--5-x-12--12--x-|--7------------L-7-9--|
--7--7----------------3--3-x-10--10--x-|--5------------L-5-7--|
-------0--0--0--0--0-------------------|----------------------|


                 v                             v                  v     v   
  H        S  S  E   E  E     H.           S S E     H        S S E.  S E   
---------------------------|----------------------|------------------------|
---------------------------|----------------------|------------------------|
---------------------------|----------------------|------------------------|
--5--------L-12-12--11--9--|--7------------L-7-9--|--5--------L-------5-5--|
--3--------L-10-10---9--7--|--5------------L-5-7--|--3--------L-5-5---3-3--|
---------------------------|----------------------|-------------3-3--------|


                   v                    v                             v   
  H.           S S E     H        S  S  E   E  E     H.           S S E   
----------------------|---------------------------|----------------------|
----------------------|---------------------------|----------------------|
----------------------|---------------------------|----------------------|
--7------------L-7-9--|--5--------L-12-12--11--9--|--7------------L-7-9--|
--5------------L-5-7--|--3--------L-10-10---9--7--|--5------------L-5-7--|
----------------------|---------------------------|----------------------|


                              Coro A                                        
               v     v                                                      
  H        S S E.  S E  S     S      S  S  S  S  S E   S  S  S  S  S  S E   
--------------------------|------------------------------------------------|
--------------------------|--12-----10-12-10-12-------12-10-12-10-12-------|
--------------------------|---------------------12-------------------12----|
--5--------L-------7-7--x-|------------------------------------------------|
--3--------L-5-5---5-5--x-|------------------------------------------------|
-------------3-3----------|------------------------------------------------|


   S  S  S  S  S  S E   S  S  S  S  S  S E   
--------------------------------------------|
--12-10-12-10-12-------12-10-12-13-12-------|
-----------------12-------------------12----|
--------------------------------------------|
--------------------------------------------|
--------------------------------------------|


   S  S  S  S  S  S E   S  S  S  S  S  S E   
--------------------------------------------|
--12-10-12-10-12-------12-10-12-10-12-------|
-----------------12-------------------12----|
--------------------------------------------|
--------------------------------------------|
--------------------------------------------|


   S  S  S  S  S  S E   S  S  S  S  S  S E   
--------------------------------------------|
--12-10-12-10-12-------12-10-12-13-12-------|
-----------------12-------------------12----|
--------------------------------------------|
--------------------------------------------|
--------------------------------------------|


   S  S  S  S  S  S E   S  S  S  S  S  S E   
--------------------------------------------|
--12-10-12-10-12-------12-10-12-10-12-------|
-----------------12-------------------12----|
--------------------------------------------|
--------------------------------------------|
--------------------------------------------|


   S  S  S  S  S  S E   S  S  S  S  S  S E   
--------------------------------------------|
--12-10-12-10-12-------12-10-12-13-12-------|
-----------------12-------------------12----|
--------------------------------------------|
--------------------------------------------|
--------------------------------------------|


   S  S  S  S  S  S E   S  S  S  S  S  S E   
--------------------------------------------|
--12-10-12-10-12-------12-10-12-10-12-------|
-----------------12-------------------12----|
--------------------------------------------|
--------------------------------------------|
--------------------------------------------|


   S  S  S  S  S  S E   S  S  S  S  S  S E   
--------------------------------------------|
--12-10-12-10-12-------12-10-12-13-12-------|
-----------------12-------------------12----|
--------------------------------------------|
--------------------------------------------|
--------------------------------------------|


  Verso                                       
        v PM PM PM PM PM    v PM PM PM PM PM  
  E     S S  S  S  S  S  E  S S  S  S  S  S   
---------------------------------------------|
---------------------------------------------|
---------------------------------------------|
--9-----9----------------9--9----------------|
--7-----7----------------7--7----------------|
----------0--0--0--0--0-------0--0--0--0--0--|


     v PM PM PM PM PM      v         v  
  E  S S  S  S  S  S  E  S S  E   S  S  
---------------------------------------|
---------------------------------------|
---------------------------------------|
--9--9----------------5--5-x-12--12--x-|
--7--7----------------3--3-x-10--10--x-|
-------0--0--0--0--0-------------------|


     v PM PM PM PM PM    v PM PM PM PM PM  
  E  S S  S  S  S  S  E  S S  S  S  S  S   
------------------------------------------|
------------------------------------------|
------------------------------------------|
--9--9----------------9--9----------------|
--7--7----------------7--7----------------|
-------0--0--0--0--0-------0--0--0--0--0--|


     v PM PM PM PM PM      v         v  
  E  S S  S  S  S  S  E  S S  E   S  S  
---------------------------------------|
---------------------------------------|
---------------------------------------|
--9--9----------------5--5-x-12--12--x-|
--7--7----------------3--3-x-10--10--x-|
-------0--0--0--0--0-------------------|


     v PM PM PM PM PM    v PM PM PM PM PM  
  E  S S  S  S  S  S  E  S S  S  S  S  S   
------------------------------------------|
------------------------------------------|
------------------------------------------|
--9--9----------------9--9----------------|
--7--7----------------7--7----------------|
-------0--0--0--0--0-------0--0--0--0--0--|


     v PM PM PM PM PM      v         v  
  E  S S  S  S  S  S  E  S S  E   S  S  
---------------------------------------|
---------------------------------------|
---------------------------------------|
--9--9----------------5--5-x-12--12--x-|
--7--7----------------3--3-x-10--10--x-|
-------0--0--0--0--0-------------------|


     v PM PM PM PM PM    v PM PM PM PM PM  
  E  S S  S  S  S  S  E  S S  S  S  S  S   
------------------------------------------|
------------------------------------------|
------------------------------------------|
--9--9----------------9--9----------------|
--7--7----------------7--7----------------|
-------0--0--0--0--0-------0--0--0--0--0--|


                                          Pre-Coro             
     v PM PM PM PM PM      v         v                     v   
  E  S S  S  S  S  S  E  S S  E   S  S    H.           S S E   
---------------------------------------|----------------------|
---------------------------------------|----------------------|
---------------------------------------|----------------------|
--9--9----------------5--5-x-12--12--x-|--7------------L-7-9--|
--7--7----------------3--3-x-10--10--x-|--5------------L-5-7--|
-------0--0--0--0--0-------------------|----------------------|


                 v                             v                  v     v   
  H        S  S  E   E  E     H.           S S E     H        S S E.  S E   
---------------------------|----------------------|------------------------|
---------------------------|----------------------|------------------------|
---------------------------|----------------------|------------------------|
--5--------L-12-12--11--9--|--7------------L-7-9--|--5--------L-------5-5--|
--3--------L-10-10---9--7--|--5------------L-5-7--|--3--------L-5-5---3-3--|
---------------------------|----------------------|-------------3-3--------|


                   v                    v                             v   
  H.           S S E     H        S  S  E   E  E     H.           S S E   
----------------------|---------------------------|----------------------|
----------------------|---------------------------|----------------------|
----------------------|---------------------------|----------------------|
--7------------L-7-9--|--5--------L-12-12--11--9--|--7------------L-7-9--|
--5------------L-5-7--|--3--------L-10-10---9--7--|--5------------L-5-7--|
----------------------|---------------------------|----------------------|


                              Coro A                                        
               v     v                                                      
  H        S S E.  S E  S     S      S  S  S  S  S E   S  S  S  S  S  S E   
--------------------------|------------------------------------------------|
--------------------------|--12-----10-12-10-12-------12-10-12-10-12-------|
--------------------------|---------------------12-------------------12----|
--5--------L-------7-7--x-|------------------------------------------------|
--3--------L-5-5---5-5--x-|------------------------------------------------|
-------------3-3----------|------------------------------------------------|


   S  S  S  S  S  S E   S  S  S  S  S  S E   
--------------------------------------------|
--12-10-12-10-12-------12-10-12-13-12-------|
-----------------12-------------------12----|
--------------------------------------------|
--------------------------------------------|
--------------------------------------------|


   S  S  S  S  S  S E   S  S  S  S  S  S E   
--------------------------------------------|
--12-10-12-10-12-------12-10-12-10-12-------|
-----------------12-------------------12----|
--------------------------------------------|
--------------------------------------------|
--------------------------------------------|


   S  S  S  S  S  S E   S  S  S  S  S  S E   
--------------------------------------------|
--12-10-12-10-12-------12-10-12-13-12-------|
-----------------12-------------------12----|
--------------------------------------------|
--------------------------------------------|
--------------------------------------------|


   S  S  S  S  S  S E   S  S  S  S  S  S E   
--------------------------------------------|
--12-10-12-10-12-------12-10-12-10-12-------|
-----------------12-------------------12----|
--------------------------------------------|
--------------------------------------------|
--------------------------------------------|


   S  S  S  S  S  S E   S  S  S  S  S  S E   
--------------------------------------------|
--12-10-12-10-12-------12-10-12-13-12-------|
-----------------12-------------------12----|
--------------------------------------------|
--------------------------------------------|
--------------------------------------------|


   S  S  S  S  S  S E   S  S  S  S  S  S E   
--------------------------------------------|
--12-10-12-10-12-------12-10-12-10-12-------|
-----------------12-------------------12----|
--------------------------------------------|
--------------------------------------------|
--------------------------------------------|


   S  S  S  S  S  S E   S  S  S  S  S  S E   
--------------------------------------------|
--12-10-12-10-12-------12-10-12-13-12-------|
-----------------12-------------------12----|
--------------------------------------------|
--------------------------------------------|
--------------------------------------------|


  Interludio                                    
  >          v PM PM PM PM >  v PM PM PM PM PM  
  E          S S  S  S  S  E  S S  S  S  S  S   
-----------------------------------------------|
-----------------------------------------------|
--9----------9-------------9--9----------------|
--9----------9-------------9--9----------------|
--7----------7-7--7--7--7--7--7-7--7--7--7--7--|
-----------------------------------------------|


  >  v PM PM PM PM PM > >  v > >  v    >  v PM PM PM PM PM >  v PM PM PM PM PM  
  E  S S  S  S  S  S  S E  S S E  S    E  S S  S  S  S  S  E  S S  S  S  S  S   
------------------------------------|------------------------------------------|
------------------------------------|------------------------------------------|
--5--5-----------------------7-7--x-|--9--9----------------9--9----------------|
--5--5----------------5-5--x-7-7--x-|--9--9----------------9--9----------------|
--3--3-3--3--3--3--3--5-5--x-5-5--x-|--7--7-7--7--7--7--7--7--7-7--7--7--7--7--|
----------------------3-3--x--------|------------------------------------------|


  >  v PM PM PM PM PM > >  v > >  v    >  v PM PM PM PM PM >  v PM PM PM PM PM  
  E  S S  S  S  S  S  S E  S S E  S    E  S S  S  S  S  S  E  S S  S  S  S  S   
------------------------------------|------------------------------------------|
------------------------------------|------------------------------------------|
--5--5-----------------------7-7--x-|--9--9----------------9--9----------------|
--5--5----------------5-5--x-7-7--x-|--9--9----------------9--9----------------|
--3--3-3--3--3--3--3--5-5--x-5-5--x-|--7--7-7--7--7--7--7--7--7-7--7--7--7--7--|
----------------------3-3--x--------|------------------------------------------|


  >  v PM PM PM PM PM > >  v > >  v    >  v PM PM PM PM PM >  v PM PM PM PM PM  
  E  S S  S  S  S  S  S E  S S E  S    E  S S  S  S  S  S  E  S S  S  S  S  S   
------------------------------------|------------------------------------------|
------------------------------------|------------------------------------------|
--5--5-----------------------7-7--x-|--9--9----------------9--9----------------|
--5--5----------------5-5--x-7-7--x-|--9--9----------------9--9----------------|
--3--3-3--3--3--3--3--5-5--x-5-5--x-|--7--7-7--7--7--7--7--7--7-7--7--7--7--7--|
----------------------3-3--x--------|------------------------------------------|


  >  v PM PM PM PM PM > >  v > >  v   
  E  S S  S  S  S  S  S E  S S E  E   
-------------------------------------|
-------------------------------------|
--5--5-----------------------7-7--x--|
--5--5----------------5-5--x-7-7--x--|
--3--3-3--3--3--3--3--5-5--x-5-5--x--|
----------------------3-3--x---------|


  Solo Adrian Smith                                       
  PM                PM PM PM ^ v ^   PM PM PM PM ^ v ^    
  S                 S  S  S  S S S S S  S  S  S  S S S S  
---------------------------------------------------------|
---------------------------------------------------------|
---------------------------------------------------------|
--9-----------------9--9--9--9-9-9---7--7--7--7--7-7-7---|
--9-----------------9--9--9--9-9-9---7--7--7--7--7-7-7---|
--7-----------------7--7--7--7-7-7---5--5--5--5--5-5-5---|


  PM PM PM PM ^ v ^   PM PM PM PM ^ v ^    
  S  S  S  S  S S S S S  S  S  S  S S S S  
------------------------------------------|
------------------------------------------|
------------------------------------------|
--5--5--5--5--5-5-5---7--7--7--7--7-7-7---|
--5--5--5--5--5-5-5---7--7--7--7--7-7-7---|
--3--3--3--3--3-3-3---5--5--5--5--5-5-5---|


  PM PM PM PM ^ v ^   PM PM PM PM ^ v ^    
  S  S  S  S  S S S S S  S  S  S  S S S S  
------------------------------------------|
------------------------------------------|
------------------------------------------|
--9--9--9--9--9-9-9---7--7--7--7--7-7-7---|
--9--9--9--9--9-9-9---7--7--7--7--7-7-7---|
--7--7--7--7--7-7-7---5--5--5--5--5-5-5---|


  PM PM PM PM ^ v ^   ^ v ^ v ^ v ^    
  S  S  S  S  S S S S S S S S S S S S  
--------------------------------------|
--------------------------------------|
----------------------5-5-5-5-5-5-5---|
--5--5--5--5--5-5-5---5-5-5-5-5-5-5---|
--5--5--5--5--5-5-5---3-3-3-3-3-3-3---|
--3--3--3--3--3-3-3-------------------|


  PM PM PM PM ^ v ^   PM PM PM PM ^ v ^    
  S  S  S  S  S S S S S  S  S  S  S S S S  
------------------------------------------|
------------------------------------------|
------------------------------------------|
--9--9--9--9--9-9-9---7--7--7--7--7-7-7---|
--9--9--9--9--9-9-9---7--7--7--7--7-7-7---|
--7--7--7--7--7-7-7---5--5--5--5--5-5-5---|


  PM PM PM PM ^ v ^   PM PM PM PM ^ v ^    
  S  S  S  S  S S S S S  S  S  S  S S S S  
------------------------------------------|
------------------------------------------|
------------------------------------------|
--5--5--5--5--5-5-5---7--7--7--7--7-7-7---|
--5--5--5--5--5-5-5---7--7--7--7--7-7-7---|
--3--3--3--3--3-3-3---5--5--5--5--5-5-5---|


  PM PM PM PM ^ v ^   PM PM PM PM ^ v ^    
  S  S  S  S  S S S S S  S  S  S  S S S S  
------------------------------------------|
------------------------------------------|
------------------------------------------|
--9--9--9--9--9-9-9---7--7--7--7--7-7-7---|
--9--9--9--9--9-9-9---7--7--7--7--7-7-7---|
--7--7--7--7--7-7-7---5--5--5--5--5-5-5---|


  PM PM PM PM ^ v ^                    
  S  S  S  S  S S S S S S S S S S S S  
--------------------------------------|
--------------------------------------|
----------------------5-5-5-5-5-5-5-5-|
--5--5--5--5--5-5-5---5-5-5-5-5-5-5-5-|
--5--5--5--5--5-5-5---3-3-3-3-3-3-3-3-|
--3--3--3--3--3-3-3-------------------|


  Interludio                                    
  >          v PM PM PM PM >  v PM PM PM PM PM  
  E          S S  S  S  S  E  S S  S  S  S  S   
-----------------------------------------------|
-----------------------------------------------|
--9----------9-------------9--9----------------|
--9----------9-------------9--9----------------|
--7----------7-7--7--7--7--7--7-7--7--7--7--7--|
-----------------------------------------------|


  >  v PM PM PM PM PM > >  v > >  v    >  v PM PM PM PM PM >  v PM PM PM PM PM  
  E  S S  S  S  S  S  S E  S S E  S    E  S S  S  S  S  S  E  S S  S  S  S  S   
------------------------------------|------------------------------------------|
------------------------------------|------------------------------------------|
--5--5-----------------------7-7--x-|--9--9----------------9--9----------------|
--5--5----------------5-5--x-7-7--x-|--9--9----------------9--9----------------|
--3--3-3--3--3--3--3--5-5--x-5-5--x-|--7--7-7--7--7--7--7--7--7-7--7--7--7--7--|
----------------------3-3--x--------|------------------------------------------|


  >  v PM PM PM PM PM > >  v > >  v    >  v PM PM PM PM PM >  v PM PM PM PM PM  
  E  S S  S  S  S  S  S E  S S E  S    E  S S  S  S  S  S  E  S S  S  S  S  S   
------------------------------------|------------------------------------------|
------------------------------------|------------------------------------------|
--5--5-----------------------7-7--x-|--9--9----------------9--9----------------|
--5--5----------------5-5--x-7-7--x-|--9--9----------------9--9----------------|
--3--3-3--3--3--3--3--5-5--x-5-5--x-|--7--7-7--7--7--7--7--7--7-7--7--7--7--7--|
----------------------3-3--x--------|------------------------------------------|


  >  v PM PM PM PM PM > >  v > >  v    >  v PM PM PM PM PM >  v PM PM PM PM PM  
  E  S S  S  S  S  S  S E  S S E  S    E  S S  S  S  S  S  E  S S  S  S  S  S   
------------------------------------|------------------------------------------|
------------------------------------|------------------------------------------|
--5--5-----------------------7-7--x-|--9--9----------------9--9----------------|
--5--5----------------5-5--x-7-7--x-|--9--9----------------9--9----------------|
--3--3-3--3--3--3--3--5-5--x-5-5--x-|--7--7-7--7--7--7--7--7--7-7--7--7--7--7--|
----------------------3-3--x--------|------------------------------------------|


  >  v PM PM PM PM PM > >  v > >  v   
  E  S S  S  S  S  S  S E  S S E  E   
-------------------------------------|
-------------------------------------|
--5--5-----------------------7-7--x--|
--5--5----------------5-5--x-7-7--x--|
--3--3-3--3--3--3--3--5-5--x-5-5--x--|
----------------------3-3--x---------|


   Coro A                                        
   S      S  S  S  S  S E   S  S  S  S  S  S E   
------------------------------------------------|
--12-----10-12-10-12-------12-10-12-10-12-------|
---------------------12-------------------12----|
------------------------------------------------|
------------------------------------------------|
------------------------------------------------|


   S  S  S  S  S  S E   S  S  S  S  S  S E   
--------------------------------------------|
--12-10-12-10-12-------12-10-12-13-12-------|
-----------------12-------------------12----|
--------------------------------------------|
--------------------------------------------|
--------------------------------------------|


   S  S  S  S  S  S E   S  S  S  S  S  S E   
--------------------------------------------|
--12-10-12-10-12-------12-10-12-10-12-------|
-----------------12-------------------12----|
--------------------------------------------|
--------------------------------------------|
--------------------------------------------|


   S  S  S  S  S  S E   S  S  S  S  S  S E   
--------------------------------------------|
--12-10-12-10-12-------12-10-12-13-12-------|
-----------------12-------------------12----|
--------------------------------------------|
--------------------------------------------|
--------------------------------------------|


   S  S  S  S  S  S E   S  S  S  S  S  S E   
--------------------------------------------|
--12-10-12-10-12-------12-10-12-10-12-------|
-----------------12-------------------12----|
--------------------------------------------|
--------------------------------------------|
--------------------------------------------|


   S  S  S  S  S  S E   S  S  S  S  S  S E   
--------------------------------------------|
--12-10-12-10-12-------12-10-12-13-12-------|
-----------------12-------------------12----|
--------------------------------------------|
--------------------------------------------|
--------------------------------------------|


   S  S  S  S  S  S E   S  S  S  S  S  S E   
--------------------------------------------|
--12-10-12-10-12-------12-10-12-10-12-------|
-----------------12-------------------12----|
--------------------------------------------|
--------------------------------------------|
--------------------------------------------|


   S  S  S  S  S  S E   S  S  S  S  S  S E   
--------------------------------------------|
--12-10-12-10-12-------12-10-12-13-12-------|
-----------------12-------------------12----|
--------------------------------------------|
--------------------------------------------|
--------------------------------------------|


   S  S  S  S  S  S E   S  S  S  S  S  S E   
--------------------------------------------|
--12-10-12-10-12-------12-10-12-10-12-------|
-----------------12-------------------12----|
--------------------------------------------|
--------------------------------------------|
--------------------------------------------|


   S  S  S  S  S  S E   S  S  S  S  S  S E   
--------------------------------------------|
--12-10-12-10-12-------12-10-12-13-12-------|
-----------------12-------------------12----|
--------------------------------------------|
--------------------------------------------|
--------------------------------------------|


   S  S  S  S  S  S E   S  S  S  S  S  S E   
--------------------------------------------|
--12-10-12-10-12-------12-10-12-10-12-------|
-----------------12-------------------12----|
--------------------------------------------|
--------------------------------------------|
--------------------------------------------|


   S  S  S  S  S  S E   S  S  S  S  S  S E   
--------------------------------------------|
--12-10-12-10-12-------12-10-12-13-12-------|
-----------------12-------------------12----|
--------------------------------------------|
--------------------------------------------|
--------------------------------------------|


   S  S  S  S  S  S E   S  S  S  S  S  S E   
--------------------------------------------|
--12-10-12-10-12-------12-10-12-10-12-------|
-----------------12-------------------12----|
--------------------------------------------|
--------------------------------------------|
--------------------------------------------|


   S  S  S  S  S  S E   S  S  S  S  S  S E   
--------------------------------------------|
--12-10-12-10-12-------12-10-12-13-12-------|
-----------------12-------------------12----|
--------------------------------------------|
--------------------------------------------|
--------------------------------------------|


   S  S  S  S  S  S E   S  S  S  S  S  S E   
--------------------------------------------|
--12-10-12-10-12-------12-10-12-10-12-------|
-----------------12-------------------12----|
--------------------------------------------|
--------------------------------------------|
--------------------------------------------|


                                               Coro B            
   S  S  S  S  S  S E   S  S  S  S  S  S E     W                 
--------------------------------------------|-------------------|
--12-10-12-10-12-------12-10-12-13-12-------|-------------------|
-----------------12-------------------12----|-------------------|
--------------------------------------------|--2----------------|
--------------------------------------------|--2----------------|
--------------------------------------------|--0----------------|


  W                   W                   W                   W                 
-------------------|-------------------|-------------------|-------------------|
-------------------|-------------------|-------------------|-------------------|
--5----------------|-------------------|--7----------------|-------------------|
--5----------------|--5----------------|--7----------------|--2----------------|
--3----------------|--5----------------|--5----------------|--2----------------|
-------------------|--3----------------|-------------------|--0----------------|


  W                   W                   W                 
-------------------|-------------------|-------------------|
-------------------|-------------------|-------------------|
--5----------------|-------------------|--7----------------|
--5----------------|--5----------------|--7----------------|
--3----------------|--5----------------|--5----------------|
-------------------|--3----------------|-------------------|


  Outro                                                   
  Q     E  Q    E   Q         S  E   S E  Q    E   Q      
--------------------------|------------------------------|
--------8--7----8--10~----|---L--L\----8--7----8--10~----|
--------------------------|------------------------------|
--------------------------|------------------------------|
--------------------------|------------------------------|
--------------------------|------------------------------|


   S  E   S E  Q    E   Q         S  E   S E  Q    E  Q      
------------------------------|-----------------------------|
---L--L\----8--7----8--10~----|---L--L\----8--7-------------|
------------------------------|--------------------9--7~----|
------------------------------|-----------------------------|
------------------------------|-----------------------------|
------------------------------|-----------------------------|


  S E   S E  Q    E   Q         S  E   S E  Q    E   Q      
----------------------------|------------------------------|
----------8--7----8--10~----|---L--L\----8--7----8--10~----|
--L-L\----------------------|------------------------------|
----------------------------|------------------------------|
----------------------------|------------------------------|
----------------------------|------------------------------|


   S  E   S E  Q    E   Q         E   E  Q.     Q.        W                 
------------------------------|------------------------|-------------------|
---L--L\----8--7----8--10~----|---L\-----8------7------|-------------------|
------------------------------|------------------------|--7----------------|
------------------------------|------------------------|-------------------|
------------------------------|------------------------|-------------------|
------------------------------|------------------------|-------------------|


  W                  
-------------------||
-------------------||
--L----------------||
-------------------||
-------------------||
-------------------||




Guitar #3:
                
Janick Gers

          Intro                                          
     S    S        W                   W                 
E||----|--------|-------------------|-------------------|
B||----|--------|-------------------|-------------------|
G||----|--------|-------------------|-------------------|
D||----|--------|-------------------|-------------------|
A||----|--------|-------------------|-------------------|
E||----|--------|-------------------|-------------------|


     v           v              v             v         v  
  E  S S Q    E  S S Q       E  S S Q    E  S S  E   S  S  
--------------------------|-------------------------------|
--------------------------|-------------------------------|
--------------------------|--------------5--5-x-12--12--x-|
--9--9--------9--9--------|--9--9--------5--5-x-12--12--x-|
--7--7--------7--7--------|--7--7--------3--3-x-10--10--x-|
--0--0--------0--0--------|--0--0-------------------------|


     v PM PM PM PM PM    v PM PM PM PM PM  
  E  S S  S  S  S  S  E  S S  S  S  S  S   
------------------------------------------|
------------------------------------------|
--9--9----------------9--9----------------|
--9--9----------------9--9----------------|
--7--7----------------7--7----------------|
-------0--0--0--0--0-------0--0--0--0--0--|


     v PM PM PM PM PM      v         v  
  E  S S  S  S  S  S  E  S S  E   S  S  
---------------------------------------|
---------------------------------------|
--9--9----------------5--5-x-12--12--x-|
--9--9----------------5--5-x-12--12--x-|
--7--7----------------3--3-x-10--10--x-|
-------0--0--0--0--0-------------------|


     v PM PM PM PM PM    v PM PM PM PM PM  
  E  S S  S  S  S  S  E  S S  S  S  S  S   
------------------------------------------|
------------------------------------------|
--9--9----------------9--9----------------|
--9--9----------------9--9----------------|
--7--7----------------7--7----------------|
-------0--0--0--0--0-------0--0--0--0--0--|


     v PM PM PM PM PM      v         v  
  E  S S  S  S  S  S  E  S S  E   S  S  
---------------------------------------|
---------------------------------------|
--9--9----------------5--5-x-12--12--x-|
--9--9----------------5--5-x-12--12--x-|
--7--7----------------3--3-x-10--10--x-|
-------0--0--0--0--0-------------------|


  Verso                                       
        v PM PM PM PM PM    v PM PM PM PM PM  
  E     S S  S  S  S  S  E  S S  S  S  S  S   
---------------------------------------------|
---------------------------------------------|
--9-----9----------------9--9----------------|
--9-----9----------------9--9----------------|
--7-----7----------------7--7----------------|
----------0--0--0--0--0-------0--0--0--0--0--|


     v PM PM PM PM PM      v         v  
  E  S S  S  S  S  S  E  S S  E   S  S  
---------------------------------------|
---------------------------------------|
--9--9----------------5--5-x-12--12--x-|
--9--9----------------5--5-x-12--12--x-|
--7--7----------------3--3-x-10--10--x-|
-------0--0--0--0--0-------------------|


     v PM PM PM PM PM    v PM PM PM PM PM  
  E  S S  S  S  S  S  E  S S  S  S  S  S   
------------------------------------------|
------------------------------------------|
--9--9----------------9--9----------------|
--9--9----------------9--9----------------|
--7--7----------------7--7----------------|
-------0--0--0--0--0-------0--0--0--0--0--|


     v PM PM PM PM PM      v         v  
  E  S S  S  S  S  S  E  S S  E   S  S  
---------------------------------------|
---------------------------------------|
--9--9----------------5--5-x-12--12--x-|
--9--9----------------5--5-x-12--12--x-|
--7--7----------------3--3-x-10--10--x-|
-------0--0--0--0--0-------------------|


     v PM PM PM PM PM    v PM PM PM PM PM  
  E  S S  S  S  S  S  E  S S  S  S  S  S   
------------------------------------------|
------------------------------------------|
--9--9----------------9--9----------------|
--9--9----------------9--9----------------|
--7--7----------------7--7----------------|
-------0--0--0--0--0-------0--0--0--0--0--|


     v PM PM PM PM PM      v         v  
  E  S S  S  S  S  S  E  S S  E   S  S  
---------------------------------------|
---------------------------------------|
--9--9----------------5--5-x-12--12--x-|
--9--9----------------5--5-x-12--12--x-|
--7--7----------------3--3-x-10--10--x-|
-------0--0--0--0--0-------------------|


     v PM PM PM PM PM    v PM PM PM PM PM  
  E  S S  S  S  S  S  E  S S  S  S  S  S   
------------------------------------------|
------------------------------------------|
--9--9----------------9--9----------------|
--9--9----------------9--9----------------|
--7--7----------------7--7----------------|
-------0--0--0--0--0-------0--0--0--0--0--|


                                          Pre-Coro             
     v PM PM PM PM PM      v         v                     v   
  E  S S  S  S  S  S  E  S S  E   S  S    H.           S S E   
---------------------------------------|----------------------|
---------------------------------------|----------------------|
--9--9----------------5--5-x-12--12--x-|--7------------L-7-9--|
--9--9----------------5--5-x-12--12--x-|--7------------L-7-9--|
--7--7----------------3--3-x-10--10--x-|--5------------L-5-7--|
-------0--0--0--0--0-------------------|----------------------|


                 v                             v                   v     v   
  H        S  S  E   E  E     H.           S S E     H         S S E.  S E   
---------------------------|----------------------|-------------------------|
---------------------------|----------------------|-------------------------|
--5--------L-12-12--11--9--|--7------------L-7-9--|--5---------L-------5-5--|
--5--------L-12-12--11--9--|--7------------L-7-9--|--5---------L-5-5---5-5--|
--3--------L-10-10---9--7--|--5------------L-5-7--|--3---------L-5-5---3-3--|
---------------------------|----------------------|--------------3-3--------|


                   v                    v                             v   
  H.           S S E     H        S  S  E   E  E     H.           S S E   
----------------------|---------------------------|----------------------|
----------------------|---------------------------|----------------------|
--7------------L-7-9--|--5--------L-12-12--11--9--|--7------------L-7-9--|
--7------------L-7-9--|--5--------L-12-12--11--9--|--7------------L-7-9--|
--5------------L-5-7--|--3--------L-10-10---9--7--|--5------------L-5-7--|
----------------------|---------------------------|----------------------|


                              Coro A                            
                v     v       ^      v ^ v ^     ^ v ^ v ^      
  H         S S E.  S E  S    S      S S S E  E  S S S S E  E   
---------------------------|-----------------------------------|
---------------------------|-----------------------------------|
--5---------L-------7-7--x-|--9------9-9-9-9-----5-5-5-5-5-----|
--5---------L-5-5---7-7--x-|--9------9-9-9-9-----5-5-5-5-5-----|
--3---------L-5-5---5-5--x-|--7------7-7-7-7-----3-3-3-3-3-----|
--------------3-3----------|-----------------------------------|


  ^ v ^ v ^     ^ v ^ v ^        ^ v ^ v ^      ^  v  ^  v  ^      
  S S S S E  E  S S S S E  E     S S S S E  E   S  S  S  S  E  E   
------------------------------|-----------------------------------|
------------------------------|-----------------------------------|
------------------------------|--9-9-9-9-9-----12-12-12-12-12-----|
--5-5-5-5-5-----7-7-7-7-7-----|--9-9-9-9-9-----12-12-12-12-12-----|
--5-5-5-5-5-----7-7-7-7-7-----|--7-7-7-7-7-----10-10-10-10-10-----|
--3-3-3-3-3-----5-5-5-5-5-----|-----------------------------------|


  ^ v ^ v ^     ^ v ^   ^ v ^      ^ v ^ v ^     ^ v ^ v ^      
  S S S S E  E  S S S S S S S S    S S S S E  E  S S S S E  E   
--------------------------------|------------------------------|
--------------------------------|------------------------------|
--5-5-5-5-5---------------------|--9-9-9-9-9-----5-5-5-5-5-----|
--5-5-5-5-5-----5-5-5---7-7-7---|--9-9-9-9-9-----5-5-5-5-5-----|
--3-3-3-3-3-----5-5-5---7-7-7---|--7-7-7-7-7-----3-3-3-3-3-----|
----------------3-3-3---5-5-5---|------------------------------|


  ^ v ^ v ^     ^ v ^ v ^        ^ v ^ v ^      ^  v  ^  v  ^      
  S S S S E  E  S S S S E  E     S S S S E  E   S  S  S  S  E  E   
------------------------------|-----------------------------------|
------------------------------|-----------------------------------|
------------------------------|--9-9-9-9-9-----12-12-12-12-12-----|
--5-5-5-5-5-----7-7-7-7-7-----|--9-9-9-9-9-----12-12-12-12-12-----|
--5-5-5-5-5-----7-7-7-7-7-----|--7-7-7-7-7-----10-10-10-10-10-----|
--3-3-3-3-3-----5-5-5-5-5-----|-----------------------------------|


                                   Verso                                       
  ^ v ^ v ^     ^ v ^   ^ v ^            v PM PM PM PM PM    v PM PM PM PM PM  
  S S S S E  E  S S S S S S S S    E     S S  S  S  S  S  E  S S  S  S  S  S   
--------------------------------|---------------------------------------------|
--------------------------------|---------------------------------------------|
--5-5-5-5-5---------------------|--9-----9----------------9--9----------------|
--5-5-5-5-5-----5-5-5---7-7-7---|--9-----9----------------9--9----------------|
--3-3-3-3-3-----5-5-5---7-7-7---|--7-----7----------------7--7----------------|
----------------3-3-3---5-5-5---|----------0--0--0--0--0-------0--0--0--0--0--|


     v PM PM PM PM PM      v         v  
  E  S S  S  S  S  S  E  S S  E   S  S  
---------------------------------------|
---------------------------------------|
--9--9----------------5--5-x-12--12--x-|
--9--9----------------5--5-x-12--12--x-|
--7--7----------------3--3-x-10--10--x-|
-------0--0--0--0--0-------------------|


     v PM PM PM PM PM    v PM PM PM PM PM  
  E  S S  S  S  S  S  E  S S  S  S  S  S   
------------------------------------------|
------------------------------------------|
--9--9----------------9--9----------------|
--9--9----------------9--9----------------|
--7--7----------------7--7----------------|
-------0--0--0--0--0-------0--0--0--0--0--|


     v PM PM PM PM PM      v         v  
  E  S S  S  S  S  S  E  S S  E   S  S  
---------------------------------------|
---------------------------------------|
--9--9----------------5--5-x-12--12--x-|
--9--9----------------5--5-x-12--12--x-|
--7--7----------------3--3-x-10--10--x-|
-------0--0--0--0--0-------------------|


     v PM PM PM PM PM    v PM PM PM PM PM  
  E  S S  S  S  S  S  E  S S  S  S  S  S   
------------------------------------------|
------------------------------------------|
--9--9----------------9--9----------------|
--9--9----------------9--9----------------|
--7--7----------------7--7----------------|
-------0--0--0--0--0-------0--0--0--0--0--|


     v PM PM PM PM PM      v         v  
  E  S S  S  S  S  S  E  S S  E   S  S  
---------------------------------------|
---------------------------------------|
--9--9----------------5--5-x-12--12--x-|
--9--9----------------5--5-x-12--12--x-|
--7--7----------------3--3-x-10--10--x-|
-------0--0--0--0--0-------------------|


     v PM PM PM PM PM    v PM PM PM PM PM  
  E  S S  S  S  S  S  E  S S  S  S  S  S   
------------------------------------------|
------------------------------------------|
--9--9----------------9--9----------------|
--9--9----------------9--9----------------|
--7--7----------------7--7----------------|
-------0--0--0--0--0-------0--0--0--0--0--|


                                          Pre-Coro             
     v PM PM PM PM PM      v         v                     v   
  E  S S  S  S  S  S  E  S S  E   S  S    H.           S S E   
---------------------------------------|----------------------|
---------------------------------------|----------------------|
--9--9----------------5--5-x-12--12--x-|--7------------L-7-9--|
--9--9----------------5--5-x-12--12--x-|--7------------L-7-9--|
--7--7----------------3--3-x-10--10--x-|--5------------L-5-7--|
-------0--0--0--0--0-------------------|----------------------|


                 v                             v                   v     v   
  H        S  S  E   E  E     H.           S S E     H         S S E.  S E   
---------------------------|----------------------|-------------------------|
---------------------------|----------------------|-------------------------|
--5--------L-12-12--11--9--|--7------------L-7-9--|--5---------L-------5-5--|
--5--------L-12-12--11--9--|--7------------L-7-9--|--5---------L-5-5---5-5--|
--3--------L-10-10---9--7--|--5------------L-5-7--|--3---------L-5-5---3-3--|
---------------------------|----------------------|--------------3-3--------|


                   v                    v                             v   
  H.           S S E     H        S  S  E   E  E     H.           S S E   
----------------------|---------------------------|----------------------|
----------------------|---------------------------|----------------------|
--7------------L-7-9--|--5--------L-12-12--11--9--|--7------------L-7-9--|
--7------------L-7-9--|--5--------L-12-12--11--9--|--7------------L-7-9--|
--5------------L-5-7--|--3--------L-10-10---9--7--|--5------------L-5-7--|
----------------------|---------------------------|----------------------|


                              Coro A                            
                v     v       ^      v ^ v ^     ^ v ^ v ^      
  H         S S E.  S E  S    S      S S S E  E  S S S S E  E   
---------------------------|-----------------------------------|
---------------------------|-----------------------------------|
--5---------L-------7-7--x-|--9------9-9-9-9-----5-5-5-5-5-----|
--5---------L-5-5---7-7--x-|--9------9-9-9-9-----5-5-5-5-5-----|
--3---------L-5-5---5-5--x-|--7------7-7-7-7-----3-3-3-3-3-----|
--------------3-3----------|-----------------------------------|


  ^ v ^ v ^     ^ v ^ v ^        ^ v ^ v ^      ^  v  ^  v  ^      
  S S S S E  E  S S S S E  E     S S S S E  E   S  S  S  S  E  E   
------------------------------|-----------------------------------|
------------------------------|-----------------------------------|
------------------------------|--9-9-9-9-9-----12-12-12-12-12-----|
--5-5-5-5-5-----7-7-7-7-7-----|--9-9-9-9-9-----12-12-12-12-12-----|
--5-5-5-5-5-----7-7-7-7-7-----|--7-7-7-7-7-----10-10-10-10-10-----|
--3-3-3-3-3-----5-5-5-5-5-----|-----------------------------------|


  ^ v ^ v ^     ^ v ^   ^ v ^      ^ v ^ v ^     ^ v ^ v ^      
  S S S S E  E  S S S S S S S S    S S S S E  E  S S S S E  E   
--------------------------------|------------------------------|
--------------------------------|------------------------------|
--5-5-5-5-5---------------------|--9-9-9-9-9-----5-5-5-5-5-----|
--5-5-5-5-5-----5-5-5---7-7-7---|--9-9-9-9-9-----5-5-5-5-5-----|
--3-3-3-3-3-----5-5-5---7-7-7---|--7-7-7-7-7-----3-3-3-3-3-----|
----------------3-3-3---5-5-5---|------------------------------|


  ^ v ^ v ^     ^ v ^ v ^        ^ v ^ v ^      ^  v  ^  v  ^      
  S S S S E  E  S S S S E  E     S S S S E  E   S  S  S  S  E  E   
------------------------------|-----------------------------------|
------------------------------|-----------------------------------|
------------------------------|--9-9-9-9-9-----12-12-12-12-12-----|
--5-5-5-5-5-----7-7-7-7-7-----|--9-9-9-9-9-----12-12-12-12-12-----|
--5-5-5-5-5-----7-7-7-7-7-----|--7-7-7-7-7-----10-10-10-10-10-----|
--3-3-3-3-3-----5-5-5-5-5-----|-----------------------------------|


  ^ v ^ v ^     ^ v ^   ^ v ^    
  S S S S E  E  S S S S S S S S  
--------------------------------|
--------------------------------|
--5-5-5-5-5---------------------|
--5-5-5-5-5-----5-5-5---7-7-7---|
--3-3-3-3-3-----5-5-5---7-7-7---|
----------------3-3-3---5-5-5---|


  Interludio                                    
  >          v PM PM PM PM >  v PM PM PM PM PM  
  E          S S  S  S  S  E  S S  S  S  S  S   
-----------------------------------------------|
-----------------------------------------------|
--9----------9-------------9--9----------------|
--9----------9-------------9--9----------------|
--7----------7-7--7--7--7--7--7-7--7--7--7--7--|
-----------------------------------------------|


  >  v PM PM PM PM PM > >  v > >  v    >  v PM PM PM PM PM >  v PM PM PM PM PM  
  E  S S  S  S  S  S  S E  S S E  S    E  S S  S  S  S  S  E  S S  S  S  S  S   
------------------------------------|------------------------------------------|
------------------------------------|------------------------------------------|
--5--5-----------------------7-7--x-|--9--9----------------9--9----------------|
--5--5----------------5-5--x-7-7--x-|--9--9----------------9--9----------------|
--3--3-3--3--3--3--3--5-5--x-5-5--x-|--7--7-7--7--7--7--7--7--7-7--7--7--7--7--|
----------------------3-3--x--------|------------------------------------------|


  >  v PM PM PM PM PM > >  v > >  v    >  v PM PM PM PM PM >  v PM PM PM PM PM  
  E  S S  S  S  S  S  S E  S S E  S    E  S S  S  S  S  S  E  S S  S  S  S  S   
------------------------------------|------------------------------------------|
------------------------------------|------------------------------------------|
--5--5-----------------------7-7--x-|--9--9----------------9--9----------------|
--5--5----------------5-5--x-7-7--x-|--9--9----------------9--9----------------|
--3--3-3--3--3--3--3--5-5--x-5-5--x-|--7--7-7--7--7--7--7--7--7-7--7--7--7--7--|
----------------------3-3--x--------|------------------------------------------|


  >  v PM PM PM PM PM > >  v > >  v    >  v PM PM PM PM PM >  v PM PM PM PM PM  
  E  S S  S  S  S  S  S E  S S E  S    E  S S  S  S  S  S  E  S S  S  S  S  S   
------------------------------------|------------------------------------------|
------------------------------------|------------------------------------------|
--5--5-----------------------7-7--x-|--9--9----------------9--9----------------|
--5--5----------------5-5--x-7-7--x-|--9--9----------------9--9----------------|
--3--3-3--3--3--3--3--5-5--x-5-5--x-|--7--7-7--7--7--7--7--7--7-7--7--7--7--7--|
----------------------3-3--x--------|------------------------------------------|


  >  v PM PM PM PM PM > >  v > >  v   
  E  S S  S  S  S  S  S E  S S E  E   
-------------------------------------|
-------------------------------------|
--5--5-----------------------7-7--x--|
--5--5----------------5-5--x-7-7--x--|
--3--3-3--3--3--3--3--5-5--x-5-5--x--|
----------------------3-3--x---------|


  Solo Adrian Smith                                       
  PM                PM PM PM ^ v ^   PM PM PM PM ^ v ^    
  S                 S  S  S  S S S S S  S  S  S  S S S S  
---------------------------------------------------------|
---------------------------------------------------------|
---------------------------------------------------------|
---------------------------------------------------------|
--9-----------------9--9--9--9-9-9---7--7--7--7--7-7-7---|
--7-----------------7--7--7--7-7-7---5--5--5--5--5-5-5---|


  PM PM PM PM ^ v ^   PM PM PM PM ^ v ^    
  S  S  S  S  S S S S S  S  S  S  S S S S  
------------------------------------------|
------------------------------------------|
------------------------------------------|
------------------------------------------|
--5--5--5--5--5-5-5---7--7--7--7--7-7-7---|
--3--3--3--3--3-3-3---5--5--5--5--5-5-5---|


  PM PM PM PM ^ v ^   PM PM PM PM ^ v ^    
  S  S  S  S  S S S S S  S  S  S  S S S S  
------------------------------------------|
------------------------------------------|
------------------------------------------|
------------------------------------------|
--9--9--9--9--9-9-9---7--7--7--7--7-7-7---|
--7--7--7--7--7-7-7---5--5--5--5--5-5-5---|


  PM PM PM PM ^ v ^   ^ v ^ v ^ v ^    
  S  S  S  S  S S S S S S S S S S S S  
--------------------------------------|
--------------------------------------|
--------------------------------------|
----------------------5-5-5-5-5-5-5---|
--5--5--5--5--5-5-5---3-3-3-3-3-3-3---|
--3--3--3--3--3-3-3-------------------|


  PM PM PM PM ^ v ^   PM PM PM PM ^ v ^    
  S  S  S  S  S S S S S  S  S  S  S S S S  
------------------------------------------|
------------------------------------------|
------------------------------------------|
------------------------------------------|
--9--9--9--9--9-9-9---7--7--7--7--7-7-7---|
--7--7--7--7--7-7-7---5--5--5--5--5-5-5---|


  PM PM PM PM ^ v ^   PM PM PM PM ^ v ^    
  S  S  S  S  S S S S S  S  S  S  S S S S  
------------------------------------------|
------------------------------------------|
------------------------------------------|
------------------------------------------|
--5--5--5--5--5-5-5---7--7--7--7--7-7-7---|
--3--3--3--3--3-3-3---5--5--5--5--5-5-5---|


  PM PM PM PM ^ v ^   PM PM PM PM ^ v ^    
  S  S  S  S  S S S S S  S  S  S  S S S S  
------------------------------------------|
------------------------------------------|
------------------------------------------|
------------------------------------------|
--9--9--9--9--9-9-9---7--7--7--7--7-7-7---|
--7--7--7--7--7-7-7---5--5--5--5--5-5-5---|


  PM PM PM PM ^ v ^                    
  S  S  S  S  S S S S S S S S S S S S  
--------------------------------------|
--------------------------------------|
--------------------------------------|
----------------------5-5-5-5-5-5-5-5-|
--5--5--5--5--5-5-5---3-3-3-3-3-3-3-3-|
--3--3--3--3--3-3-3-------------------|


  Interludio                                    
  >          v PM PM PM PM >  v PM PM PM PM PM  
  E          S S  S  S  S  E  S S  S  S  S  S   
-----------------------------------------------|
-----------------------------------------------|
--9----------9-------------9--9----------------|
--9----------9-------------9--9----------------|
--7----------7-7--7--7--7--7--7-7--7--7--7--7--|
-----------------------------------------------|


  >  v PM PM PM PM PM > >  v > >  v    >  v PM PM PM PM PM >  v PM PM PM PM PM  
  E  S S  S  S  S  S  S E  S S E  S    E  S S  S  S  S  S  E  S S  S  S  S  S   
------------------------------------|------------------------------------------|
------------------------------------|------------------------------------------|
--5--5-----------------------7-7--x-|--9--9----------------9--9----------------|
--5--5----------------5-5--x-7-7--x-|--9--9----------------9--9----------------|
--3--3-3--3--3--3--3--5-5--x-5-5--x-|--7--7-7--7--7--7--7--7--7-7--7--7--7--7--|
----------------------3-3--x--------|------------------------------------------|


  >  v PM PM PM PM PM > >  v > >  v    >  v PM PM PM PM PM >  v PM PM PM PM PM  
  E  S S  S  S  S  S  S E  S S E  S    E  S S  S  S  S  S  E  S S  S  S  S  S   
------------------------------------|------------------------------------------|
------------------------------------|------------------------------------------|
--5--5-----------------------7-7--x-|--9--9----------------9--9----------------|
--5--5----------------5-5--x-7-7--x-|--9--9----------------9--9----------------|
--3--3-3--3--3--3--3--5-5--x-5-5--x-|--7--7-7--7--7--7--7--7--7-7--7--7--7--7--|
----------------------3-3--x--------|------------------------------------------|


  >  v PM PM PM PM PM > >  v > >  v    >  v PM PM PM PM PM >  v PM PM PM PM PM  
  E  S S  S  S  S  S  S E  S S E  S    E  S S  S  S  S  S  E  S S  S  S  S  S   
------------------------------------|------------------------------------------|
------------------------------------|------------------------------------------|
--5--5-----------------------7-7--x-|--9--9----------------9--9----------------|
--5--5----------------5-5--x-7-7--x-|--9--9----------------9--9----------------|
--3--3-3--3--3--3--3--5-5--x-5-5--x-|--7--7-7--7--7--7--7--7--7-7--7--7--7--7--|
----------------------3-3--x--------|------------------------------------------|


                                        Coro A                            
  >  v PM PM PM PM PM > >  v > >  v     ^      v ^ v ^     ^ v ^ v ^      
  E  S S  S  S  S  S  S E  S S E  E     S      S S S E  E  S S S S E  E   
-------------------------------------|-----------------------------------|
-------------------------------------|-----------------------------------|
--5--5-----------------------7-7--x--|--9------9-9-9-9-----5-5-5-5-5-----|
--5--5----------------5-5--x-7-7--x--|--9------9-9-9-9-----5-5-5-5-5-----|
--3--3-3--3--3--3--3--5-5--x-5-5--x--|--7------7-7-7-7-----3-3-3-3-3-----|
----------------------3-3--x---------|-----------------------------------|


  ^ v ^ v ^     ^ v ^ v ^        ^ v ^ v ^      ^  v  ^  v  ^      
  S S S S E  E  S S S S E  E     S S S S E  E   S  S  S  S  E  E   
------------------------------|-----------------------------------|
------------------------------|-----------------------------------|
------------------------------|--9-9-9-9-9-----12-12-12-12-12-----|
--5-5-5-5-5-----7-7-7-7-7-----|--9-9-9-9-9-----12-12-12-12-12-----|
--5-5-5-5-5-----7-7-7-7-7-----|--7-7-7-7-7-----10-10-10-10-10-----|
--3-3-3-3-3-----5-5-5-5-5-----|-----------------------------------|


  ^ v ^ v ^     ^ v ^   ^ v ^      ^ v ^ v ^     ^ v ^ v ^      
  S S S S E  E  S S S S S S S S    S S S S E  E  S S S S E  E   
--------------------------------|------------------------------|
--------------------------------|------------------------------|
--5-5-5-5-5---------------------|--9-9-9-9-9-----5-5-5-5-5-----|
--5-5-5-5-5-----5-5-5---7-7-7---|--9-9-9-9-9-----5-5-5-5-5-----|
--3-3-3-3-3-----5-5-5---7-7-7---|--7-7-7-7-7-----3-3-3-3-3-----|
----------------3-3-3---5-5-5---|------------------------------|


  ^ v ^ v ^     ^ v ^ v ^        ^ v ^ v ^      ^  v  ^  v  ^      
  S S S S E  E  S S S S E  E     S S S S E  E   S  S  S  S  E  E   
------------------------------|-----------------------------------|
------------------------------|-----------------------------------|
------------------------------|--9-9-9-9-9-----12-12-12-12-12-----|
--5-5-5-5-5-----7-7-7-7-7-----|--9-9-9-9-9-----12-12-12-12-12-----|
--5-5-5-5-5-----7-7-7-7-7-----|--7-7-7-7-7-----10-10-10-10-10-----|
--3-3-3-3-3-----5-5-5-5-5-----|-----------------------------------|


  ^ v ^ v ^     ^ v ^   ^ v ^      ^ v ^ v ^     ^ v ^ v ^      
  S S S S E  E  S S S S S S S S    S S S S E  E  S S S S E  E   
--------------------------------|------------------------------|
--------------------------------|------------------------------|
--5-5-5-5-5---------------------|--9-9-9-9-9-----5-5-5-5-5-----|
--5-5-5-5-5-----5-5-5---7-7-7---|--9-9-9-9-9-----5-5-5-5-5-----|
--3-3-3-3-3-----5-5-5---7-7-7---|--7-7-7-7-7-----3-3-3-3-3-----|
----------------3-3-3---5-5-5---|------------------------------|


  ^ v ^ v ^     ^ v ^ v ^        ^ v ^ v ^      ^  v  ^  v  ^      
  S S S S E  E  S S S S E  E     S S S S E  E   S  S  S  S  E  E   
------------------------------|-----------------------------------|
------------------------------|-----------------------------------|
------------------------------|--9-9-9-9-9-----12-12-12-12-12-----|
--5-5-5-5-5-----7-7-7-7-7-----|--9-9-9-9-9-----12-12-12-12-12-----|
--5-5-5-5-5-----7-7-7-7-7-----|--7-7-7-7-7-----10-10-10-10-10-----|
--3-3-3-3-3-----5-5-5-5-5-----|-----------------------------------|


  ^ v ^ v ^     ^ v ^   ^ v ^      ^ v ^ v ^     ^ v ^ v ^      
  S S S S E  E  S S S S S S S S    S S S S E  E  S S S S E  E   
--------------------------------|------------------------------|
--------------------------------|------------------------------|
--5-5-5-5-5---------------------|--9-9-9-9-9-----5-5-5-5-5-----|
--5-5-5-5-5-----5-5-5---7-7-7---|--9-9-9-9-9-----5-5-5-5-5-----|
--3-3-3-3-3-----5-5-5---7-7-7---|--7-7-7-7-7-----3-3-3-3-3-----|
----------------3-3-3---5-5-5---|------------------------------|


  ^ v ^ v ^     ^ v ^ v ^        ^ v ^ v ^      ^  v  ^  v  ^      
  S S S S E  E  S S S S E  E     S S S S E  E   S  S  S  S  E  E   
------------------------------|-----------------------------------|
------------------------------|-----------------------------------|
------------------------------|--9-9-9-9-9-----12-12-12-12-12-----|
--5-5-5-5-5-----7-7-7-7-7-----|--9-9-9-9-9-----12-12-12-12-12-----|
--5-5-5-5-5-----7-7-7-7-7-----|--7-7-7-7-7-----10-10-10-10-10-----|
--3-3-3-3-3-----5-5-5-5-5-----|-----------------------------------|


                                   Coro B                                
  ^ v ^ v ^     ^ v ^   ^ v ^                                            
  S S S S E  E  S S S S S S S S    W                   W                 
--------------------------------|-------------------|-------------------|
--------------------------------|-------------------|-------------------|
--5-5-5-5-5---------------------|--9----------------|--5----------------|
--5-5-5-5-5-----5-5-5---7-7-7---|--9----------------|--5----------------|
--3-3-3-3-3-----5-5-5---7-7-7---|--7----------------|--3----------------|
----------------3-3-3---5-5-5---|-------------------|-------------------|


  W                   W                   W                   W                 
-------------------|-------------------|-------------------|-------------------|
-------------------|-------------------|-------------------|-------------------|
-------------------|--7----------------|--9----------------|--5----------------|
--5----------------|--7----------------|--9----------------|--5----------------|
--5----------------|--5----------------|--7----------------|--3----------------|
--3----------------|-------------------|-------------------|-------------------|


                                          Outro                                 
  W                   W                   W                   W                 
-------------------|-------------------|-------------------|-------------------|
-------------------|-------------------|-------------------|-------------------|
-------------------|--7----------------|--9----------------|--5----------------|
--5----------------|--7----------------|--9----------------|--5----------------|
--5----------------|--5----------------|--7----------------|--3----------------|
--3----------------|-------------------|-------------------|-------------------|


  W                   W                   W                   W                 
-------------------|-------------------|-------------------|-------------------|
-------------------|-------------------|-------------------|-------------------|
-------------------|--7----------------|--9----------------|--5----------------|
--5----------------|--7----------------|--9----------------|--5----------------|
--5----------------|--5----------------|--7----------------|--3----------------|
--3----------------|-------------------|-------------------|-------------------|


  W                   W                   W                 
-------------------|-------------------|-------------------|
-------------------|-------------------|-------------------|
-------------------|--7----------------|--L----------------|
--5----------------|--7----------------|--L----------------|
--5----------------|--5----------------|--L----------------|
--3----------------|-------------------|-------------------|


  W                  
-------------------||
-------------------||
--L----------------||
--L----------------||
--L----------------||
-------------------||




Voice Melody:

Bruce Dickinson

                          Verso                                   
                          Hand  Of  Fate is  Mo   ving And    The 
     W                    E.    E   S    E   E.   E    T   T  E   
E||-------------------|--12----12--12---14--15---14---12---L-----|
B||-------------------|--------------------------------------15--|
G||-------------------|---9-----9---9---11--12---11----9---L-----|
D||-------------------|--------------------------------------12--|
A||-------------------|------------------------------------------|
E||-------------------|------------------------------------------|


   Fin  ger    Points To    You        He 
   E.   S   S  E      T  T  E  Q    S  S  
--15---14---L-12-----------12---------12-|
---------------------15--L---------------|
--12---11---L--9------------9----------9-|
---------------------12--L---------------|
-----------------------------------------|
-----------------------------------------|


   Knocks    You  To Your Feet And So  What    Are  You Go  nna    Do?        
   S      S  E.   S  E    E.   E   E   S       E.   E   E   T   T  E  Q.      
--12------L-12---12-14---15---14--12-------|--15---14--15--17---L-15---------|
--------------------------------------15---|---------------------------------|
---9------L--9----9-11---12---11---9-------|--12---11--12--14---L-12---------|
--------------------------------------12---|---------------------------------|
-------------------------------------------|---------------------------------|
-------------------------------------------|---------------------------------|


       Your    Tongue Was Fro zen Now You've 
  E.   S    S  E      E   E   E   E   S      
------12----L-12-----14--15--14--12---------|
-------------------------------------15-----|
-------9----L--9-----11--12--11---9---------|
-------------------------------------12-----|
--------------------------------------------|
--------------------------------------------|


      Got Some thing To Say        The 
   S  E   E    E     S  E  Q    S  S   
-----15--14---12----------------------|
---L----------------15-13---------15--|
-----12--11----9----------------------|
---L----------------12-10---------12--|
--------------------------------------|
--------------------------------------|


     Pi  per At  The    Gates Of  Dawn is  
  S  E   E   E   T   T  E     E   E    E   
----12--12--12--14---L-15----14--12-------|
--------------------------------------15--|
-----9---9---9--11---L-12----11---9-------|
--------------------------------------12--|
------------------------------------------|
------------------------------------------|


   Ca   lling You    His Way.           
   E.   E     T   T  E   S    Q    E.   
--12---14----15---L-14--15----L--------|
---------------------------------------|
---9---11----12---L-11--12----L--------|
---------------------------------------|
---------------------------------------|
---------------------------------------|


  Pre-Coro                                      
            You Watch The    World Ex  plo ding 
  E.        E   E     T   T  E.    E   E   S    
-----------14--14----14---L-15----14--12--14---|
-----------------------------------------------|
-----------11--11----11---L-12----11---9--11---|
-----------------------------------------------|
-----------------------------------------------|
-----------------------------------------------|


   E    very Sin gle    Night                     Dan cing In  The    Sun a   
   E.   E    E   T   T  S     Q    E.     Q    S  E   E    E   T   T  E   E   
--15---14---12-------------------------|---------14--14---15--14---L-12--14--|
----------------15---L-15-----L--------|-------------------------------------|
--12---11----9-------------------------|---------11--11---12--11---L--9--11--|
----------------12---L-12-----L--------|-------------------------------------|
---------------------------------------|-------------------------------------|
---------------------------------------|-------------------------------------|


   New  Born in  The    Light              Say  Good bye To  Gra vi ty  And 
   E.   E    E   T   T  S     Q    E.      E.   E    E   E   E   S  E   E   
--15---14---12-------------------------|--14---14---14--14--15--14-12--14--|
----------------15---L-15-----L--------|-----------------------------------|
--12---11----9-------------------------|--11---11---11--11--12--11--9--11--|
----------------12---L-12-----L--------|-----------------------------------|
---------------------------------------|-----------------------------------|
---------------------------------------|-----------------------------------|


   Say  Good bye To    Death         He   llo To  E   ter ni ty  And 
   E.   E    E   T  T  Q    Q        E.   E   E   E   E   S  E   E   
--15---14---12-------------------|--14---14--14--14--15--14-12--14--|
----------------15--L-15---------|----------------------------------|
--12---11----9-------------------|--11---11--11--11--12--11--9--11--|
----------------12--L-12---------|----------------------------------|
---------------------------------|----------------------------------|
---------------------------------|----------------------------------|


                                        Coro A                    
   Live For E   very    Breath                  Your  Time  Will  
   E.   E   E   T.   X  Q     E.  E     Q       Q     Q     Q     
--15---14--15--17----L-15------------|---------19----17----19----|
-------------------------------------|---------------------------|
--12---11--12--14----L-12------------|---------16----14----16----|
-------------------------------------|---------------------------|
-------------------------------------|---------------------------|
-------------------------------------|---------------------------|


   Come     (THY  WILL  BE       DONE)     Your  Time  Will  
   E    E   Q     Q     Q        E     E   Q     Q     Q     
--15----L--19----17----15----|--12-----L--19----17----19----|
-----------------------------|------------------------------|
--12----L--16----14----12----|---9-----L--16----14----16----|
-----------------------------|------------------------------|
-----------------------------|------------------------------|
-----------------------------|------------------------------|


   Co      oo  oo me                Your  Time  Will  
   Q.      S   S  H           Q     Q     Q     Q     
--15------17s-19-17--------|-------19----17----19----|
---------------------------|-------------------------|
--12------14s-16-14--------|-------16----14----16----|
---------------------------|-------------------------|
---------------------------|-------------------------|
---------------------------|-------------------------|


   Come     (THY  WILL  BE       DONE) Your  Time  Will  
   E    E   Q     Q     Q        Q     Q     Q     Q     
--15----L--19----17----15----|--12----19----17----19----|
-----------------------------|--------------------------|
--12----L--16----14----12----|---9----16----14----16----|
-----------------------------|--------------------------|
-----------------------------|--------------------------|
-----------------------------|--------------------------|


   Come    (DON'T          TURN,          DON'T      RUN)/The 
   Q.      X      X  X  X  X     X  X  X  Q.      S  S        
--15------17s-----L--L--L-19-----L--L--L-17-------L-12-------|
-------------------------------------------------------------|
--12------14s-----L--L--L-16-----L--L--L-14-------L--9-------|
-------------------------------------------------------------|
-------------------------------------------------------------|
-------------------------------------------------------------|


   Verso                                                  
   The/Fe    rry Man  Wants    His Mo ney,   You    Ain't 
   T      T  S   E.   T     T  E   S  E.  S  T   T  E     
--12------L-12--12---12-----L-14--15-12-----12---L-14----|
---------------------------------------------------------|
---9------L--9---9----9-----L-11--12--9------9---L-11----|
---------------------------------------------------------|
---------------------------------------------------------|
---------------------------------------------------------|


   Go   nna Give it    Back          He   Can Push His    Own  Boat As  You 
   E.   E   E    T  T  Q    Q        E.   E   E    T   T  E.   E    E   S   
--15---14--12--------------------|--12---12--12---14---L-15---14---12------|
----------------15--L-13---------|-------------------------------------15--|
--12---11---9--------------------|---9----9---9---11---L-12---11----9------|
----------------12--L-10---------|-------------------------------------12--|
---------------------------------|-----------------------------------------|
---------------------------------|-----------------------------------------|


      Set Up   Off The    Track         No   thing You Can Con tem plate Will 
   S  S   E.   E   T   T  Q    Q        E.   E     E   E   E   E   E     S    
-----15--14---12---------12---------|--12---12----12--14--15--14--12---------|
---L--------------15---L------------|-----------------------------------15---|
-----12--11----9----------9---------|---9----9-----9--11--12--11---9---------|
---L--------------12---L------------|-----------------------------------12---|
------------------------------------|----------------------------------------|
------------------------------------|----------------------------------------|


      E   ver Be  The    Same   E    very 
   S  E   E   E   T   T  E.  S  E.   S    
-----15--14--12----------------12--------|
---L-------------15---L-13----------15---|
-----12--11---9-----------------9--------|
---L-------------12---L-10----------12---|
-----------------------------------------|
-----------------------------------------|


      Se cond is  a  New    Spark, Sets The    U    ni verse A   flame      
   S  S  E.   E   S  S   S  E.     E    S      E.   S  E     E   Q.     E   
-----12-12---12--14-15---L-14-----12-------|--12---14-15----14--15---------|
---L-----------------------------------15--|-------------------------------|
------9--9----9--11-12---L-11------9-------|---9---11-12----11--12---------|
---L-----------------------------------12--|-------------------------------|
-------------------------------------------|-------------------------------|
-------------------------------------------|-------------------------------|


  Pre-Coro                                      
            You Watch The    World Ex  plo ding 
  E.        E   E     T   T  E.    E   E   S    
-----------14--14----14---L-15----14--12--14---|
-----------------------------------------------|
-----------11--11----11---L-12----11---9--11---|
-----------------------------------------------|
-----------------------------------------------|
-----------------------------------------------|


   E    very Sin gle    Night                     Dan cing in  The    Sun a   
   E.   E    E   T   T  S     Q    E.     Q    S  E   E    E   T   T  E   E   
--15---14---12-------------------------|---------14--14---15--14---L-12--14--|
----------------15---L-15-----L--------|-------------------------------------|
--12---11----9-------------------------|---------11--11---12--11---L--9--11--|
----------------12---L-12-----L--------|-------------------------------------|
---------------------------------------|-------------------------------------|
---------------------------------------|-------------------------------------|


   New  Born in  The    Light           
   E.   E    E   T   T  S     Q    E.   
--15---14---12-------------------------|
----------------15---L-15-----L--------|
--12---11----9-------------------------|
----------------12---L-12-----L--------|
---------------------------------------|
---------------------------------------|


   Bro  thers And    Their Fa   thers Join ing 
   E.   E     T   T  E     E.   E     S    E   
--14---14----14---L-14----15---14----12---14--|
----------------------------------------------|
--11---11----11---L-11----12---11-----9---11--|
----------------------------------------------|
----------------------------------------------|
----------------------------------------------|


   Hands And Make a     Chain    The    Sha  dow Of  The Wi cker Man is  
   E.    E   E    T  T  Q    E   E      E.   E   E   E   S  E    E   E   
--15----14--12------------------14--|--14---14--14--14--15-14---12--14--|
-----------------15--L-15-----------|-----------------------------------|
--12----11---9------------------11--|--11---11--11--11--12-11----9--11--|
-----------------12--L-12-----------|-----------------------------------|
------------------------------------|-----------------------------------|
------------------------------------|-----------------------------------|


                                   Coro A                    
   Ri   sing Up A   gain                   Your  Time  Will  
   E.   E    S  E   Q    E.  E     Q       Q     Q     Q     
--15---14---15-17--15-----------|---------19----17----19----|
--------------------------------|---------------------------|
--12---11---12-14--12-----------|---------16----14----16----|
--------------------------------|---------------------------|
--------------------------------|---------------------------|
--------------------------------|---------------------------|


   Come     (THY     WILL  BE       DONE)     Your  Time  Will  
   E    E   E    E   Q     Q        E     E   Q     Q     Q     
--15----L--19----L--17----15----|--12-----L--19----17----19----|
--------------------------------|------------------------------|
--12----L--16----L--14----12----|---9-----L--16----14----16----|
--------------------------------|------------------------------|
--------------------------------|------------------------------|
--------------------------------|------------------------------|


   Co      oo  oo me                Your  Time  Will  
   Q.      S   S  H           Q     Q     Q     Q     
--15------17s-19-17--------|-------19----17----19----|
---------------------------|-------------------------|
--12------14s-16-14--------|-------16----14----16----|
---------------------------|-------------------------|
---------------------------|-------------------------|
---------------------------|-------------------------|


   Come     (THY     WILL  BE       DONE)     Your  Time  Will  
   E    E   E    E   Q     Q        E     E   Q     Q     Q     
--15----L--19----L--17----15----|--12-----L--19----17----19----|
--------------------------------|------------------------------|
--12----L--16----L--14----12----|---9-----L--16----14----16----|
--------------------------------|------------------------------|
--------------------------------|------------------------------|
--------------------------------|------------------------------|


                                                       Interludio            
   Come    (DON'T          TURN,          DON'T        RUN)                  
   Q.      X      X  X  X  X     X  X  X  H            Q.        Q.     E.   
--15------17s-----L--L--L-19-----L--L--L-17--------|--12--------------------|
---------------------------------------------------|------------------------|
--12------14s-----L--L--L-16-----L--L--L-14--------|---9--------------------|
---------------------------------------------------|------------------------|
---------------------------------------------------|------------------------|
---------------------------------------------------|------------------------|


                        Coro A                                                  
                                Your  Time  Will     Come     (THY  WILL  BE    
  W                S    Q       Q     Q     Q        E    E   Q     Q     Q     
---------------------|---------19----17----19----|--15----L--19----17----15----|
---------------------|---------------------------|-----------------------------|
---------------------|---------16----14----16----|--12----L--16----14----12----|
---------------------|---------------------------|-----------------------------|
---------------------|---------------------------|-----------------------------|
---------------------|---------------------------|-----------------------------|


   DONE)     Your  Time  Will     Co      oo  oo me        
   E     E   Q     Q     Q        Q.      S   S  H         
--12-----L--19----17----19----|--15------17s-19-17--------|
------------------------------|---------------------------|
---9-----L--16----14----16----|--12------14s-16-14--------|
------------------------------|---------------------------|
------------------------------|---------------------------|
------------------------------|---------------------------|


        Your  Time  Will     Come  (I'LL BE    THE      ONE)  Your  Time  Will  
  Q     Q     Q     Q        Q     Q     Q     Q        Q     Q     Q     Q     
-------19----17----19----|--15----19----17----15----|--12----19----17----19----|
-------------------------|--------------------------|--------------------------|
-------16----14----16----|--12----16----14----12----|---9----16----14----16----|
-------------------------|--------------------------|--------------------------|
-------------------------|--------------------------|--------------------------|
-------------------------|--------------------------|--------------------------|


   Come    (BURN          ON          THE          SUN)  Your  Time  Will  
   Q.      X     X  X  X  X  X  X  X  H            Q     Q     Q     Q     
--15------17s----L--L--L-19--L--L--L-17--------|--12----19----17----19----|
-----------------------------------------------|--------------------------|
--12------14s----L--L--L-16--L--L--L-14--------|---9----16----14----16----|
-----------------------------------------------|--------------------------|
-----------------------------------------------|--------------------------|
-----------------------------------------------|--------------------------|


   Come     (THY  WILL  BE       DONE)     Your  Time  Will  
   E    E   Q     Q     Q        E     E   Q     Q     Q     
--15----L--19----17----15----|--12-----L--19----17----19----|
-----------------------------|------------------------------|
--12----L--16----14----12----|---9-----L--16----14----16----|
-----------------------------|------------------------------|
-----------------------------|------------------------------|
-----------------------------|------------------------------|


   Co      oo  oo me                Your  Time  Will  
   Q.      S   S  H           Q     Q     Q     Q     
--15------17s-19-17--------|-------19----17----19----|
---------------------------|-------------------------|
--12------14s-16-14--------|-------16----14----16----|
---------------------------|-------------------------|
---------------------------|-------------------------|
---------------------------|-------------------------|


   Come     (THY  WILL  BE       DONE)     Your  Time  Will  
   E    E   Q     Q     Q        E     E   Q     Q     Q     
--15----L--19----17----15----|--12-----L--19----17----19----|
-----------------------------|------------------------------|
--12----L--16----14----12----|---9-----L--16----14----16----|
-----------------------------|------------------------------|
-----------------------------|------------------------------|
-----------------------------|------------------------------|


   Come    (DON'T          TURN,          DON'T     
   Q.      X      X  X  X  X     X  X  X  H         
--15------17s-----L--L--L-19-----L--L--L-17--------|
---------------------------------------------------|
--12------14s-----L--L--L-16-----L--L--L-14--------|
---------------------------------------------------|
---------------------------------------------------|
---------------------------------------------------|


   Coro B                                                 
   RUN)   Oo  oo    oo  oooh,         Oo  oo    oo  oooh  
   Q      E   Q     E   Q       Q     E   Q     E   Q     
--12---------14----15--17----|-------15--14----15--17----|
---------20------------------|---------------------------|
---9---------11----12--14----|-------12--11----12--14----|
---------17------------------|---------------------------|
-----------------------------|---------------------------|
-----------------------------|---------------------------|


        Oo  oo    oo  oooh,         Oo  oo    oo  oooh  
  Q     E   Q     E   Q       Q     E   Q     E   Q     
-------15--14----15--17----|-------15--14----12--------|
---------------------------|---------------------15----|
-------12--11----12--14----|-------12--11-----9--------|
---------------------------|---------------------12----|
---------------------------|---------------------------|
---------------------------|---------------------------|


        Oo  oo    oo  oooh,         Oo  oo    oo  oooh  
  Q     E   Q     E   Q       Q     E   Q     E   Q     
-------15--14----15--17----|-------15--14----15--17----|
---------------------------|---------------------------|
-------12--11----12--14----|-------12--11----12--14----|
---------------------------|---------------------------|
---------------------------|---------------------------|
---------------------------|---------------------------|


        Oo  oo    oo  oooh,         Oo  oo    oo  oooh  
  Q     E   Q     E   Q       Q     E   Q     E   Q     
-------15--14----15--17----|-------15--14----12--------|
---------------------------|---------------------15----|
-------12--11----12--14----|-------12--11-----9--------|
---------------------------|---------------------12----|
---------------------------|---------------------------|
---------------------------|---------------------------|


  Outro                                                  
         Oo  oo    oo  oooh,         Oo  oo    oo  oooh  
  Q      E   Q     E   Q       Q     E   Q     E   Q     
--------15--14----15--17----|-------15--14----15--17----|
----------------------------|---------------------------|
--------12--11----12--14----|-------12--11----12--14----|
----------------------------|---------------------------|
----------------------------|---------------------------|
----------------------------|---------------------------|


        Oo  oo    oo  oooh,         Oo  oo    oo  oooh  
  Q     E   Q     E   Q       Q     E   Q     E   Q     
-------15--14----15--17----|-------15--14----12--------|
---------------------------|---------------------15----|
-------12--11----12--14----|-------12--11-----9--------|
---------------------------|---------------------12----|
---------------------------|---------------------------|
---------------------------|---------------------------|


        Oo  oo    oo  oooh,         Oo  oo    oo  oooh  
  Q     E   Q     E   Q       Q     E   Q     E   Q     
-------15--14----15--17----|-------15--14----15--17----|
---------------------------|---------------------------|
-------12--11----12--14----|-------12--11----12--14----|
---------------------------|---------------------------|
---------------------------|---------------------------|
---------------------------|---------------------------|


        Oo  oo    oo  oooh,         Oo      oo         ooohh             
  Q     E   Q     E   Q       Q     Q.      Q.         W                 
-------15--14----15--17----|-------15------14------|--------------------|
---------------------------|-----------------------|--15----------------|
-------12--11----12--14----|-------12------11------|--------------------|
---------------------------|-----------------------|--12----------------|
---------------------------|-----------------------|--------------------|
---------------------------|-----------------------|--------------------|


   W                  
--------------------||
---L----------------||
--------------------||
---L----------------||
--------------------||
--------------------||




Chorus:

Coro: Bruce y Steve

                         Pre-Coro                                
     W                   E.        E   E   T  T  E.   E   E   S  
E||-------------------|-----------17--17--17--L-19---17--15--17-|
B||-------------------|-----------------------------------------|
G||-------------------|-----------14--14--14--L-16---14--12--14-|
D||-------------------|-----------------------------------------|
A||-------------------|-----------------------------------------|
E||-------------------|-----------------------------------------|


   E.   E   E   T  T  S  Q    E.     Q    S  E   E   E   T  T  E   E   
--19---17--15---------------------|---------17--17--19--17--L-15--17--|
---------------19--L-19--L--------|-----------------------------------|
--16---14--12---------------------|---------14--14--16--14--L-12--14--|
---------------16--L-16--L--------|-----------------------------------|
----------------------------------|-----------------------------------|
----------------------------------|-----------------------------------|


   E.   E   E   T  T  S  Q    E.      E.   E   E   E   E   S  E   E   
--19---17--15---------------------|--17---17--17--17--19--17-15--17--|
---------------19--L-19--L--------|----------------------------------|
--16---14--12---------------------|--14---14--14--14--16--14-12--14--|
---------------16--L-16--L--------|----------------------------------|
----------------------------------|----------------------------------|
----------------------------------|----------------------------------|


   E.   E   E   T  T  Q    Q        E.   E   E   E   E   S  E   E   
--19---17--15-------------------|--17---17--17--17--19--17-15--17--|
---------------19--L-19---------|----------------------------------|
--16---14--12-------------------|--14---14--14--14--16--14-12--14--|
---------------16--L-16---------|----------------------------------|
--------------------------------|----------------------------------|
--------------------------------|----------------------------------|


                                     Coro A                    
   E.   E   E   T. X  Q    E.  E     Q       Q     Q     Q     
--19---17--19--20--L-19-----------|---------15----14----15----|
----------------------------------|---------------------------|
--16---14--16--17--L-16-----------|---------12----11----12----|
----------------------------------|---------------------------|
----------------------------------|---------------------------|
----------------------------------|---------------------------|


   Q     Q     Q     Q        Q     Q     Q     Q     
--12----19----17----15----|--15----15----14----15----|
--------12----10----------|--17----------------------|
---9----------------12----|---9----12----11----12----|
---------9-----7----------|--17----------------------|
--------------------10----|---7----------------------|
--------------------------|--------------------------|


   Q.      S   S  H           Q     Q     Q     Q     
--12------14s-15-14--------|-------15----14----15----|
---------------------------|-------------------------|
---9------11s-12-11--------|-------12----11----12----|
---------------------------|-------------------------|
---------------------------|-------------------------|
---------------------------|-------------------------|


   Q     Q     Q     Q        Q     Q     Q     Q     
--12----19----17----15----|--15----15----14----15----|
--------12----10----------|--17----------------------|
---9----------------12----|---9----12----11----12----|
---------9-----7----------|--17----------------------|
--------------------10----|---7----------------------|
--------------------------|--------------------------|


   Q     Q     Q     Q        Q.     Q.     Q       W                 
--12----19----17----15----|--15------------------|-------------------|
--------12----10----------|--17------------------|-------------------|
---9----------------12----|---9------------------|-------------------|
---------9-----7----------|--17------------------|-------------------|
--------------------10----|---7------------------|-------------------|
--------------------------|----------------------|-------------------|


  Pre-Coro                                                                   
  E.        E   E   T  T  E.   E   E   S     E.   E   E   T  T  S  Q    E.   
-----------17--17--17--L-19---17--15--17-|--19---17--15---------------------|
-----------------------------------------|---------------19--L-19--L--------|
-----------14--14--14--L-16---14--12--14-|--16---14--12---------------------|
-----------------------------------------|---------------16--L-16--L--------|
-----------------------------------------|----------------------------------|
-----------------------------------------|----------------------------------|


  Q    S  E   E   E   T  T  E   E      E.   E   E   T  T  S  Q    E.   
---------17--17--19--17--L-15--17--|--19---17--15---------------------|
-----------------------------------|---------------19--L-19--L--------|
---------14--14--16--14--L-12--14--|--16---14--12---------------------|
-----------------------------------|---------------16--L-16--L--------|
-----------------------------------|----------------------------------|
-----------------------------------|----------------------------------|


   E.   E   T  T  E   E.   E   S  E      E.   E   E   T  T  Q    E   E   
--17---17--17--L-17--19---17--15-17--|--19---17--15-----------------17--|
-------------------------------------|---------------19--L-19-----------|
--14---14--14--L-14--16---14--12-14--|--16---14--12-----------------14--|
-------------------------------------|---------------16--L-16-----------|
-------------------------------------|----------------------------------|
-------------------------------------|----------------------------------|


   E.   E   E   E   S  E   E   E      E.   E   S  E   Q    E.  E   
--17---17--17--17--19-17--15--17--|--19---17--19-20--19-----------|
----------------------------------|-------------------------------|
--14---14--14--14--16-14--12--14--|--16---14--16-17--16-----------|
----------------------------------|-------------------------------|
----------------------------------|-------------------------------|
----------------------------------|-------------------------------|


  Coro A                                               
  Q       Q     Q     Q        Q     Q     Q     Q     
---------15----14----15----|--12----19----17----15----|
---------------------------|--------12----10----------|
---------12----11----12----|---9----------------12----|
---------------------------|---------9-----7----------|
---------------------------|--------------------10----|
---------------------------|--------------------------|


   Q     Q     Q     Q        Q.      S   S  H         
--15----15----14----15----|--12------14s-15-14--------|
--17----------------------|---------------------------|
---9----12----11----12----|---9------11s-12-11--------|
--17----------------------|---------------------------|
---7----------------------|---------------------------|
--------------------------|---------------------------|


  Q     Q     Q     Q        Q     Q     Q     Q        Q     Q     Q     Q     
-------15----14----15----|--12----19----17----15----|--15----15----14----15----|
-------------------------|--------12----10----------|--17----------------------|
-------12----11----12----|---9----------------12----|---9----12----11----12----|
-------------------------|---------9-----7----------|--17----------------------|
-------------------------|--------------------10----|---7----------------------|
-------------------------|--------------------------|--------------------------|


                              Interludio                                
   Q     Q     Q     Q        Q.        Q.     E.     W                 
--12----19----17----15----|--15--------------------|-------------------|
--------12----10----------|--17--------------------|-------------------|
---9----------------12----|---9--------------------|-------------------|
---------9-----7----------|--17--------------------|-------------------|
--------------------10----|---7--------------------|-------------------|
--------------------------|------------------------|-------------------|


  Coro A                                               
  Q       Q     Q     Q        Q     Q     Q     Q     
---------15----14----15----|--12----19----17----15----|
---------------------------|--------12----10----------|
---------12----11----12----|---9----------------12----|
---------------------------|---------9-----7----------|
---------------------------|--------------------10----|
---------------------------|--------------------------|


   Q     Q     Q     Q        Q.      S   S  H         
--15----15----14----15----|--12------14s-15-14--------|
--17----------------------|---------------------------|
---9----12----11----12----|---9------11s-12-11--------|
--17----------------------|---------------------------|
---7----------------------|---------------------------|
--------------------------|---------------------------|


  Q     Q     Q     Q        Q     Q     Q     Q        Q     Q     Q     Q     
-------15----14----15----|--12----19----17----15----|--15----15----14----15----|
-------------------------|--------12----10----------|--17----------------------|
-------12----11----12----|---9----------------12----|---9----12----11----12----|
-------------------------|---------9-----7----------|--17----------------------|
-------------------------|--------------------10----|---7----------------------|
-------------------------|--------------------------|--------------------------|


   Q     Q     Q     Q        Q     Q     Q     Q     
--12----19----17----15----|--15----15----14----15----|
--------12----10----------|--17----------------------|
---9----------------12----|---9----12----11----12----|
---------9-----7----------|--17----------------------|
--------------------10----|---7----------------------|
--------------------------|--------------------------|


   Q     Q     Q     Q        Q     Q     Q     Q     
--12----19----17----15----|--15----15----14----15----|
--------12----10----------|--17----------------------|
---9----------------12----|---9----12----11----12----|
---------9-----7----------|--17----------------------|
--------------------10----|---7----------------------|
--------------------------|--------------------------|


   Q.      S   S  H           Q     Q     Q     Q     
--12------14s-15-14--------|-------15----14----15----|
---------------------------|-------------------------|
---9------11s-12-11--------|-------12----11----12----|
---------------------------|-------------------------|
---------------------------|-------------------------|
---------------------------|-------------------------|


   Q     Q     Q     Q        Q     Q     Q     Q     
--12----19----17----15----|--15----15----14----15----|
--------12----10----------|--17----------------------|
---9----------------12----|---9----12----11----12----|
---------9-----7----------|--17----------------------|
--------------------10----|---7----------------------|
--------------------------|--------------------------|


                              Coro B                     
   Q     Q     Q     Q        Q      E   Q     E   Q     
--12----19----17----15----|--15------L------------------|
--------12----10----------|--17------L------------10----|
---9----------------12----|---9-----12--11----12--------|
---------9-----7----------|--17-------------------------|
--------------------10----|---7------L------------------|
--------------------------|-----------------------------|


  Q     E   Q     E   Q       Q     E   Q     E   Q     
---------------------------|---------------------------|
---------------------10----|---------------------10----|
-------12--11----12--------|-------12--11----12--------|
---------------------------|---------------------------|
---------------------------|---------------------------|
---------------------------|---------------------------|


  Q     E   Q    E   Q       Q     E   Q     E   Q     
--------------------------|---------------------------|
--------------------------|---------------------10----|
-------12--11----9--------|-------12--11----12--------|
--------------------12----|---------------------------|
--------------------------|---------------------------|
--------------------------|---------------------------|


  Q     E   Q     E   Q       Q     E   Q     E   Q     
---------------------------|---------------------------|
---------------------10----|---------------------10----|
-------12--11----12--------|-------12--11----12--------|
---------------------------|---------------------------|
---------------------------|---------------------------|
---------------------------|---------------------------|


                             Outro                      
  Q     E   Q    E   Q       Q      E   Q     E   Q     
--------------------------|----------------------------|
--------------------------|----------------------10----|
-------12--11----9--------|--------12--11----12--------|
--------------------12----|----------------------------|
--------------------------|----------------------------|
--------------------------|----------------------------|


  Q     E   Q     E   Q       Q     E   Q     E   Q     
---------------------------|---------------------------|
---------------------10----|---------------------10----|
-------12--11----12--------|-------12--11----12--------|
---------------------------|---------------------------|
---------------------------|---------------------------|
---------------------------|---------------------------|


  Q     E   Q    E   Q       Q     E   Q     E   Q     
--------------------------|---------------------------|
--------------------------|---------------------10----|
-------12--11----9--------|-------12--11----12--------|
--------------------12----|---------------------------|
--------------------------|---------------------------|
--------------------------|---------------------------|


  Q     E   Q     E   Q       Q     E   Q     E   Q       Q     Q.      Q.      
---------------------------|---------------------------|-----------------------|
---------------------10----|---------------------10----|-----------------------|
-------12--11----12--------|-------12--11----12--------|-------12------11------|
---------------------------|---------------------------|-----------------------|
---------------------------|---------------------------|-----------------------|
---------------------------|---------------------------|-----------------------|


   W                    W                  
--------------------|--------------------||
--------------------|--------------------||
--------------------|--------------------||
--12----------------|---L----------------||
--------------------|--------------------||
--------------------|--------------------||




Duration Legend
---------------
W - whole
H - half
Q - quarter
E - 8th
S - 16th
T - 32nd
X - 64th
. - note dotted
|-n-|  - n-tuplets


Tablature Legend
----------------
L - tied note
x - dead note
g - grace note
(n) - ghost note
> - accentuded note
NH - natural harmonic
AH - artificial harmonic
TH - tapped harmonic
SH - semi harmonic
PH - pitch harmonic
h - hammer on
p - pull off
b - bend
br - bendRelease
pb - preBend
pbr - preBendRelease
brb - bendReleaseBend
\n/ - tremolo bar dip
\n - tremolo bar dive
-/n - tremolo bar Release up
/n\ - tremolo bar inverted dip
/n - tremolo bar return
-\n - tremolo bar Release down
S - shift slide
s - legato slide
/ -  slide into from below or out of upwards
\ -  slide into from above or out of downwards
~ - vibrato
W - wide vibrato
tr - trill
TP - tremolo picking
T - tapping
S - slap
P - pop
< - fade in
^ - brush up
v - brush down

            
            
Suggest correction
Creating personal tab
Creating personal tab
You can edit any tab online and save it as your Personal.

You can edit, replace or remove any tab part or add personal notes – all changes will be seen only by you.

Personal tabs can be accessed anytime from any device, even offline.
Learn more »
comments
print report bad tab
guest
You may want to rate the tab now too:
select rating
Wanna post a correction for this tab? Suggest correction