Oops, an error
Loading. Please wait.

Transylvania bass

version 3
version 3

Whole song

880 views 3 this week
no commentswrite comment
1 2 3 4 5
x 11
add to favorites
×
Save as Personal and add changes to this tab that will be seen only by you. Learn more ›
×
You can save this tab as Personal to edit and correct it or add notes. All changes will be seen only by you. Learn more »
launch autoscroll
font size
0
reset
guitar tuner
backing track
0:00
0:00
edit
Autoscroll
slow
fast
+/-
esc
set tempo
stop
Author
Difficulty
                                 Transylvania                                   


                                 Iron Maiden

Steve Harris



            Intro                                                               
     S      E     W                E.  E.   4x   E  W                E.  E.   3x
G||----||-----------------------------------||--------------------------------||
D||----||*-----------------------------3---*||*--------------------------5---*||
A||----||*--5----------------------3-------*||*--7-------------------5-------*||
E||----||-----------------------------------||--------------------------------||


                                   Riff A                                     
  E  W                E.  E.       E      S S E  E  E  E  E  S S E  E  E  E   
------------------------------||---------------------------------------------|
------------------------------||*-------------------5--4---------------5--4--|
--7-------------------3---5---||*--7------7-7-7--7--------7--7-7-7--7--------|
------------------------------||---------------------------------------------|


  E  S S E  E  E  E  E  S S E  E  E  E   
----------------------------------------|
----------------------------------5--4--|
--5--5-5-5--5-----5--7--7-7-7--7--------|
---------------7------------------------|


  E  S S E  E  E  E  E  S S E  E  E  E   
----------------------------------------|
---------------5--4---------------5--4--|
--7--7-7-7--7--------7--7-7-7--7--------|
----------------------------------------|


  E  S S E  E  E  E  E  S S E  E  E  E   
-------------------------------7--------|
------------------------9-9-9-----9--7--|
--5--5-5-5--5-----5--7------------------|
---------------7------------------------|


  E  S S E  E  E  E  E  S S E  E  E  E   
----------------------------------------|
----------------------------------------|
---------------5--4---------------5--4--|
--7--7-7-7--7--------7--7-7-7--7--------|


  E  S S E  E  E  E  E  S S E  E  E  E   
----------------------------------------|
----------------------------------------|
----------------------------------5--4--|
--5--5-5-5--5--0--5--7--7-7-7--7--------|


  E  S S E  E  E  E  E  S S E  E  E  E   
----------------------------------------|
----------------------------------------|
---------------5--4---------------5--4--|
--7--7-7-7--7--------7--7-7-7--7--------|


  E  S S E  E  E  E  E  S S E  E  E  E     
-----------------------------------------||
----------------------------------5--4--*||
----------------------------------------*||
--5--5-5-5--5--0--5--7--7-7-7--7---------||


  E  S S E  E  E  E  E  S S E  E  E  E   
----------------------------------------|
----------------------------------------|
----------------------------------------|
--5--5-5-5--5--0--5--7--7-7-7--7--L-----|


    Riff B                                                                    
    Q      E  Q    E  E  E  E  Q    E     Q    E  Q    E  E  E  E  Q    E   3x
|--------------------------------------|------------------------------------||
|*--------------------5--5--5--5-------|-----------------------------------*||
|*--7---------5------------------------|--3-------5-------7--7--7--7-------*||
|--------------------------------------|------------------------------------||


  Q    E  Q    E  E  E  E  Q    E     Q    E  Q    E   
-----------------------------------|------------------|
------------------5--5--5--5-------|------------------|
--7-------5------------------------|--3-------5-------|
-----------------------------------|------------------|


  Riff A                                     
  E      S S E  E  E  E  E  S S E  E  E  E   
--------------------------------------------|
-------------------5--4---------------5--4--|
--7------7-7-7--7--------7--7-7-7--7--------|
--------------------------------------------|


  E  S S E  E  E  E  E  S S E  E  E  E   
----------------------------------------|
----------------------------------5--4--|
--5--5-5-5--5-----5--7--7-7-7--7--------|
---------------7------------------------|


  E  S S E  E  E  E  E  S S E  E  E  E   
----------------------------------------|
---------------5--4---------------5--4--|
--7--7-7-7--7--------7--7-7-7--7--------|
----------------------------------------|


  E  S S E  E  E  E  E  S S E  E  E  E   
-------------------------------7--------|
------------------------9-9-9-----9--7--|
--5--5-5-5--5-----5--7------------------|
---------------7------------------------|


  E  S S E  E  E  E  E  S S E  E  E  E   
----------------------------------------|
----------------------------------------|
---------------5--4---------------5--4--|
--7--7-7-7--7--------7--7-7-7--7--------|


  E  S S E  E  E  E  E  S S E  E  E  E   
----------------------------------------|
----------------------------------------|
----------------------------------5--4--|
--5--5-5-5--5--0--5--7--7-7-7--7--------|


  E  S S E  E  E  E  E  S S E  E  E  E   
----------------------------------------|
----------------------------------------|
---------------5--4---------------5--4--|
--7--7-7-7--7--------7--7-7-7--7--------|


  E  S S E  E  E  E  E  S S E  E  E  E   
----------------------------------------|
----------------------------------------|
----------------------------------------|
--5--5-5-5--5--0--5--7--7-7-7--7--L-----|


    Riff B                                                                    
    Q      E  Q    E  E  E  E  Q    E     Q    E  Q    E  E  E  E  Q    E   3x
|--------------------------------------|------------------------------------||
|*--------------------5--5--5--5-------|-----------------------------------*||
|*--7---------5------------------------|--3-------5-------7--7--7--7-------*||
|--------------------------------------|------------------------------------||


  Q    E  Q    E  E  E  E  Q    E     Q    E  Q    E   
-----------------------------------|------------------|
------------------5--5--5--5-------|------------------|
--7-------5------------------------|--3-------5-------|
-----------------------------------|------------------|


    Break                                                            
    E     W                E.  E.   3x  E  W                E.  E.   
|-----------------------------------||------------------------------|
|*-----------------------------5---*||------------------------------|
|*--7----------------------5-------*||--7-------------------3---5---|
|-----------------------------------||------------------------------|


  Riff C                                       
  E      S E  S E  S E  S E  S E  S E  S E  S  
----------------------------------------------|
------------------------------------7--9-7----|
--7------7-7--7-7--7-7--7-7--7-7--7---------5-|
----------------------------------------------|


  E  S E  S E  S E  S E  S E  S E  S E  S  
------------------------------------------|
--------------------------------5--7-5----|
--L--5-5--5-5--5-5--5-5--5-5--5---------3-|
------------------------------------------|


  E  S E  S E  S E  E.  S E  S E  S E  S  
-----------------------------------------|
------------3--5-3-------------5--7-5----|
--L--3-3--3---------5---5-5--5---------7-|
-----------------------------------------|


  Solo 1 Adrian Smith                                       
  E                   S E  S E  S E  S E  S E  S E  S E  S  
----------------------------------7--9-9--9-9--9-9--7------|
-----------------------------7--9---------------------7----|
--L-------------------7-7--7-----------------------------7-|
-----------------------------------------------------------|


  E  S E  S E  S E  S E  S E  S E  S E  S  
------------------------------------------|
--------------------------------5--7-9----|
--L--7-7--7-7--7-7--7-7--7-7--7---------5-|
------------------------------------------|


  E  S E  S E  S E  S E  S E  S E  S E  S  
-------------------------7-5--------------|
----------------------7-------7-5---------|
--L--5-5--5-5--5-5--5--------------7-5--3-|
------------------------------------------|


  E  S E  S E  S E  E.  S E  S E  S E  S  
-----------------------------------------|
------------2--3-5-------------4--5-7----|
--L--3-3--3---------5---5-5--5---------7-|
-----------------------------------------|


  E  S E  S E  S E  S E  S  E  S  E  S  E  S  
---------------9-7---------------------------|
----------7-9-------7-9--7-------------------|
--L--7-7-------------------10--9-10--9-----7-|
---------------------------------------10----|


  E  S E  S E  S E  S E  S E  S E  S E  S  
------------------------------------------|
--------------------------------5--7-9----|
--L--7-7--7-7--7-7--7-7--7-7--7---------5-|
------------------------------------------|


  E  S E  S E  S E  S E  S E  S E  S E  S  
--------------------7-5-------------------|
-------------------------7-5----5---------|
--L--5-5--5-5--5-5------------7----7-5--3-|
------------------------------------------|


  E  S E  S E  S E  E.  S E  S E  S E  S  
-----------------------------------------|
------------2--3-5-------------4--5-7----|
--L--3-3--3---------5---5-5--5---------7-|
-----------------------------------------|


  E  S E  S E  S E  S E  S E  S E  S E  S  
------------------------------------------|
------------------------------------------|
--L--7-7--7-7------------5-5--7-7-------7-|
---------------5-5--7-7------------5-7----|


  E  S E  S E  S E  S E  S E  S E  S E  S  
------------------------------------------|
--------------------------------5--7-9----|
--L--7-7--7-7--7-7--7-7--7-7--7---------5-|
------------------------------------------|


  E  S E  S E  S E  S E  S E  S E  S E  S  
------------------------------------------|
--------------------------------4--5-7----|
--L--5-5--5-5--5-5--5-5--5-5--5---------3-|
------------------------------------------|


  E  S E  S E  S E  E.  S E  S E  S E  S  
-----------------------------------------|
------------2--3-5-------------4--5-7----|
--L--3-3--3---------5---5-5--5---------7-|
-----------------------------------------|


  E  S E  S E  S E  S E  S E  S E  S E  S  
------------------------------------------|
------------------------------------------|
--L--7-7--7-7-------7-7-------7-7-------7-|
---------------7-7-------7-7-------7-7----|


  Riff C                                       
  E      S E  S E  S E  S E  S E  S E  S E  S  
----------------------------------------------|
------------------------------------5--7-9----|
--L------7-7--7-7--7-7--7-7--7-7--7---------5-|
----------------------------------------------|


  E  S E  S E  S E  S E  S E  S E  S E  S  
--------------------7-5-------------------|
-------------------------7-5----5---------|
--L--5-5--5-5--5-5------------7----7-5--3-|
------------------------------------------|


  E  S E  S E  S E  E.  S E  S E  S E  S  
-----------------------------------------|
------------2--3-5-------------4--5-7----|
--L--3-3--3---------5---5-5--5---------7-|
-----------------------------------------|


                                             Break                            
  E  S E  S E  S E  S E  S E  S E  S E  S    E     W                Q    S S  
----------------------------------------9-|--L-----------------------------7-|
----------4-4-------4-4-------4-4-------9-|--L-----------------------------7-|
--L--7-7-------5-5-------5-5---------5--7-|--L-----------------------------5-|
-----------------------------------7------|----------------------------------|


  E  W                Q    S S    E  H        S E.  H        S S  
--L--------------------------5-|--L-------------7--------------9-|
--L--------------------------5-|--L-------------7--------------9-|
--L--------------------------3-|--L-------------5--------------7-|
-------------------------------|---------------------------------|


  E  H        E  S S S S S S S S S S S S  
--L--------------------------------------|
--L--------------------------------------|
--L--------------7-7-7-7-7-7-7-7-7-7-7-7-|
-----------------------------------------|


  Riff D                                       
  E      S E  S E  S E  S E  S E  S E  S E  S  
----------------------------------------------|
------------------------------------5--7-9----|
--L------7-7--7-7--7-7--7-7--7-7--7---------5-|
----------------------------------------------|


  E  S E  S E  S E  S E  S E  S E  S E  S  
-------------------------7-5--------------|
----------------------7-------7-5---------|
--L--5-5--5-5--5-5--5--------------7-5--3-|
------------------------------------------|


  E  S E  S E  S E  E.  S E  S E  S E  S  
-----------------------------------------|
------------2--3-5-------------4--5-7----|
--L--3-3--3---------5---5-5--5---------7-|
-----------------------------------------|


  E  S E  S E  S E  S E  S E  S E  S E  S  
----------7-9--9-9--9-9--9-9--9-9--7------|
-----7-9-----------------------------7----|
--L-------------------------------------7-|
------------------------------------------|


  Solo 2 Dave Murray                                       
  E                  S E  S E  S E  S E  S E  S E  S E  S  
----------------------------------------------------------|
------------------------------------------------5--7-9----|
--L------------------7-7--7-7--7-7--7-7--7-7--7---------5-|
----------------------------------------------------------|


  E  S E  S E  S E  S E  S E  S E  S E  S  
------------------------------------------|
--------------------------------4--5-7----|
--L--5-5--5-5--5-5--5-5--5-5--5---------3-|
------------------------------------------|


  E  S E  S E  S E  E.  S E  S E  S E  S  
-----------------------------------------|
------------2--3-5-------------4--5-7----|
--L--3-3--3---------5---5-5--5---------7-|
-----------------------------------------|


  E  S E  S E  S E  S E  S E  S E  S E  S  
------------------------------------------|
------------------------------------------|
--L--7-7--7-7-------7-7-------7-7-------7-|
---------------7-7-------7-7-------7-7----|


  E  S E  S E  S E  S E  S E  S E  S E  S  
------------------------------------------|
--------------------------------5--7-9----|
--L--7-7--7-7--7-7--7-7--7-7--7---------5-|
------------------------------------------|


  E  S E  S E  S E  S E  S E  S E  S E  S  
-------------------------7-5--------------|
----------------------7-------7-5---------|
--L--5-5--5-5--5-5--5--------------7-5--3-|
------------------------------------------|


  E  S E  S E  S E  E.  S E  S E  S E  S  
-----------------------------------------|
------------2--3-5-------------4--5-7----|
--L--3-3--3---------5---5-5--5---------7-|
-----------------------------------------|


  E  S E  S E  S E  S E  S E  S E  S E  S  
----------------------------------------9-|
------------------------------------------|
--L--7-7--7-7------------5-5--7-7---------|
---------------5-5--7-7------------5-7----|


  E  S E  S E  S E  S E  S E  S E  S E  S  
--L--9-9--9-9--9-9--9-9--9-9--9-7-------7-|
-----------------------------------9------|
-------------------------------------5----|
------------------------------------------|


  E  S E  S E  S E  S E  S E  S E  S E  S  
--L--7-7--7-7--7-7--7-7--7-7--7-5-------5-|
-----------------------------------7------|
-------------------------------------3----|
------------------------------------------|


  E  S E  S E  S E  E.  S E  S E  S E  S  
--L--5-5--5-3-------7---7-7--7-5-------9-|
---------------5------------------7------|
-----------------5------------------7----|
-----------------------------------------|


  E  S E  S E  S E  S E  S E  S E  S E  S  
--L--9-9--9-9------------7-7--9-9-------9-|
---------------7-7--9-9------------7-9----|
------------------------------------------|
------------------------------------------|


  E  S E  S E  S E  S E  S E  S E  S E  S  
--L--9-9--9-9--9-9--9-9--9-9--9-7-------7-|
-----------------------------------9------|
-------------------------------------5----|
------------------------------------------|


  E  S E  S E  S E  S E  S E  S E  S E  S  
--L--7-7--7-7--7-7--7-7--7-7--7-5-------5-|
-----------------------------------7------|
-------------------------------------3----|
------------------------------------------|


  E  S E  S E  S E  E.  S E  S E  S E  S  
--L--5-5--5-3-------7---7-7--7-5-------9-|
---------------5------------------7------|
-----------------5------------------7----|
-----------------------------------------|


  E  S E  S E  S E  S E  S E  S E  S E  S  
--L--9-9--9-9------------7-7--9-9---------|
---------------7-7--9-9------------7-9----|
----------------------------------------7-|
------------------------------------------|


  Riff C                                       
  E      S E  S E  S E  S E  S E  S E  S E  S  
----------------------------------------------|
------------------------------------5--7-9----|
--L------7-7--7-7--7-7--7-7--7-7--7---------5-|
----------------------------------------------|


  E  S E  S E  S E  S E  S E  S E  S E  S  
-------------------------7-5--------------|
----------------------7-------7-5---------|
--L--5-5--5-5--5-5--5--------------7-5--3-|
------------------------------------------|


  E  S E  S E  S E  E.  S E  S E  S E  S  
-----------------------------------------|
------------2--3-5-------------4--5-7----|
--L--3-3--3---------5---5-5--5---------7-|
-----------------------------------------|


  E  S S S S S S S S S S S S S S S S S S S S S S  
-----9-9-9-9-9-9-9-9-9-9-9-9-9-9-9-9-9-9-9-9-9---|
-------------------------------------------------|
--L--------------------------------------------7-|
-------------------------------------------------|


  Riff D                                       
  E      S E  S E  S E  S E  S E  S E  S E  S  
----------------------------------------------|
------------------------------------5--7-9----|
--L------7-7--7-7--7-7--7-7--7-7--7---------5-|
----------------------------------------------|


  E  S E  S E  S E  S E  S E  S E  S E  S  
-------------------------7-5--------------|
----------------------7-------7-5---------|
--L--5-5--5-5--5-5--5--------------7-5--3-|
------------------------------------------|


  E  S E  S E  S E  E.  S E  S E  S E.   
----------------------------------------|
------------2--3-5-------------4--5-7---|
--L--3-3--3---------5---5-5--5----------|
----------------------------------------|


  S S S S S S S S S S S S S S S S S S S S S S S S  
--9-----------------------------------------------|
--9-----------------------------------------------|
--7-7-7-7-7-7-7-7-7-7-7-7-7-7-7-7-7-7-7-7-7-7-7-7-|
--------------------------------------------------|


  S S S S S S S S S S S S S S S S S S S S S S S S  
--------------------------------------------------|
--------------------------------------------------|
--7-7-7-7-7-7-7-7-7-7-7-7-7-7-7-7-7-7-7-7-7-7-7-7-|
--------------------------------------------------|


  S S S S S S S S S S S S S S S S H           W.                
-------------------------------------------|-------------------|
-------------------------------------------|-------------------|
--7-7-7-7-7-7-7-7-7-7-7-7-7-7-7-7-7--------|--L----------------|
-------------------------------------------|-------------------|


  Outro                                                       
  Q.     Q.     Q.     Q.        Q.     H        H        E   
--4---------------------------|------------------------------|
---------7------5------4------|------------------5--------L--|
------------------------------|--7------5--------------------|
------------------------------|------------------------------|


  W.                  W.                  E.  E.  E.  E.  E.  E.  E.  E.   
--9----------------|--L----------------|--------------4---9---4-----------|
--9----------------|--L----------------|------4---5---------------5---4---|
--7----------------|--L----------------|--7-------------------------------|
--0----------------|--L----------------|----------------------------------|


  E.  E.  E.  E.  E.  E.  E.  E.     E.  E.  E.  E.  E.  E.  E.  E.   
--------------4---9---4-----------|--------------4---9---4-----------|
------4---5---------------5---4---|------4---5---------------5---4---|
--7-------------------------------|--7-------------------------------|
----------------------------------|----------------------------------|


  E.  E.  E.  E.  E.  E.  E.  E.     T T Q    E.  E  S S H.            
--------------4---9---4-----------|--9-------------------9------------|
------4---5---------------5---4---|----9---------------9--------------|
--7-------------------------------|------7----L---L--7----------------|
----------------------------------|------0----L---L--L-L-L------------|


  W.                 
--L----------------||
-------------------||
-------------------||
--L----------------||




Duration Legend
---------------
W - whole
H - half
Q - quarter
E - 8th
S - 16th
T - 32nd
X - 64th
. - note dotted
|-n-|  - n-tuplets


Tablature Legend
----------------
L - tied note
x - dead note
g - grace note
(n) - ghost note
> - accentuded note
NH - natural harmonic
AH - artificial harmonic
TH - tapped harmonic
SH - semi harmonic
PH - pitch harmonic
h - hammer on
p - pull off
b - bend
br - bendRelease
pb - preBend
pbr - preBendRelease
brb - bendReleaseBend
\n/ - tremolo bar dip
\n - tremolo bar dive
-/n - tremolo bar Release up
/n\ - tremolo bar inverted dip
/n - tremolo bar return
-\n - tremolo bar Release down
S - shift slide
s - legato slide
/ -  slide into from below or out of upwards
\ -  slide into from above or out of downwards
~ - vibrato
W - wide vibrato
tr - trill
TP - tremolo picking
T - tapping
S - slap
P - pop
< - fade in
^ - brush up
v - brush down
Suggest correction
Creating personal tab
Creating personal tab
You can edit any tab online and save it as your Personal.

You can edit, replace or remove any tab part or add personal notes – all changes will be seen only by you.

Personal tabs can be accessed anytime from any device, even offline.
Learn more »
comments
print report bad tab
guest
You may want to rate the tab now too:
select rating
Wanna post a correction for this tab? Suggest correction