Oops, an error
Loading. Please wait.

Transylvania tab

version 3
version 3
3,806 views 3 this week
1 commentread comment
1 2 3 4 5
1 last vote to show rating
add to favorites
×
Save as Personal and add changes to this tab that will be seen only by you. Learn more ›
×
You can save this tab as Personal to edit and correct it or add notes. All changes will be seen only by you. Learn more »
launch autoscroll
font size
0
reset
how to read this tab
guitar tuner
backing track
0:00
0:00
edit
Autoscroll
slow
fast
+/-
esc
set tempo
stop
Author
Difficulty
Transylvania
By: Iron Maiden

Straight run through of the best Maiden instrumental
from 0:00 to 4:05, enjoy! any problems or errors please
comment.
-Blackfriday

Intro:
E||-------------------------------------------||
B||-------------------------------------------||
G||--------------------------------3----------||
D||------------------------------3------------||
A||-5--5-5-5-5--5-5-5-5--5-5-5-5--------------||
E||-------------------------------------------||
                                            x4
E||-------------------------------------------||
B||-------------------------------------------||
G||--------------------------------5----------||
D||------------------------------5------------||
A||-7--7-7-7-7--7-7-7-7--7-7-7-7--------------||
E||-------------------------------------------||
                                            x3
Last Time:
E||-------------------------------------------||
B||-------------------------------------------||
G||-------------------------------------------||
D||-------------------------------------------||
A||-7--7-7-7-7--7-7-7-7--7-7-7-7--3-5---------||
E||-------------------------------------------||

Main Riff 1:

E||--------------------------------------------------------|
B||--------------------------------------------------------|
G||--------------------------------------------------------|
D||-2--2222--5-4-2-2222--5-4---------------2-2222--5-4-----|
A||---------------------------5-5555-5-2-5-----------------|
E||--------------------------------------------------------|

E||---------------------------------------------------------|
B||---------------------------------------------------------|
G||---------------------------------------------------------|
D||-2--2222--5-4-2-2222--5-4---------------2-2222-----------|
A||---------------------------5-5555-5-2-5------------5-4-2-|
E||---------------------------------------------------------|

Main Riff 2
E||--------------------------------------------------------|
B||--------------------------------------------------------|
G||--------------------------------------------------------|
D||--------------------------------------------------------|
A||-2-2222--5-4-2-2222--5-4-0-0000----0-2-2222--5-4--------|
E||---------------------------------2----------------------|

E||----------------------------------------------------------|
B||----------------------------------------------------------|
G||----------------------------------------------------------|
D||---------------------------------------------5-4----------|
A||-2-2222--5-4-2-2222--5-4-0-0000----0-2-2222---------------|
E||---------------------------------2------------------------|

Main Riff 1
E||--------------------------------------------------------|
B||--------------------------------------------------------|
G||--------------------------------------------------------|
D||-2--2222--5-4-2-2222--5-4---------------2-2222--5-4-----|
A||---------------------------5-5555-5-2-5-----------------|
E||--------------------------------------------------------|

E||--------------------------------------------------------|
B||--------------------------------------------------------|
G||--------------------------------------------------------|
D||-2--2222--5-4-2-2222--5-4---------------2-2222----------|
A||---------------------------5-5555-5-2-5---------5-4-2---|
E||--------------------------------------------------------|

Main Riff 2
E||--------------------------------------------------------|
B||--------------------------------------------------------|
G||--------------------------------------------------------|
D||--------------------------------------------------------|
A||-2-2222--5-4-2-2222--5-4-0-0000----0-2-2222--5-4--------|
E||---------------------------------2----------------------|

E||------------------------------------------------------------|
B||------------------------------------------------------------|
G||------------------------------------------------------------|
D||------------------------------------------------------------|
A||-2-2222--5-4-2-2222--5-4-0-0000----0-2-2222-----------------|
E||---------------------------------2--------------------------|


Fill:

E||------------------------------------------------------------------|
B||-12---10---8---8---8---8-----8p7----10---7p8--7p8-----------------|
G||-14b--12b--10b-10b-10b-10b--------9----------------9-9b-----------|
D||------------------------------------------------------------------|
A||------------------------------------------------------------------|
E||------------------------------------------------------------------|
                                                             x4

Main Riff 1
E||--------------------------------------------------------|
B||--------------------------------------------------------|
G||--------------------------------------------------------|
D||-2--2222--5-4-2-2222--5-4---------------2-2222--5-4-----|
A||---------------------------5-5555-5-2-5-----------------|
E||--------------------------------------------------------|

E||--------------------------------------------------------|
B||--------------------------------------------------------|
G||--------------------------------------------------------|
D||-2--2222--5-4-2-2222--5-4---------------2-2222----------|
A||---------------------------5-5555-5-2-5---------5-4-2---|
E||--------------------------------------------------------|

Main Riff 2
E||--------------------------------------------------------|
B||--------------------------------------------------------|
G||--------------------------------------------------------|
D||--------------------------------------------------------|
A||-2-2222--5-4-2-2222--5-4-0-0000----0-2-2222--5-4--------|
E||---------------------------------2----------------------|

E||------------------------------------------------------------|
B||------------------------------------------------------------|
G||------------------------------------------------------------|
D||------------------------------------------------------------|
A||-2-2222--5-4-2-2222--5-4-0-0000----0-2-2222-----------------|
E||---------------------------------2--------------------------|

Fill
E||------------------------------------------------------------------|
B||-12---10---8---8---8---8-----8p7----10---7p8--7p8-----------------|
G||-14b--12b--10b-10b-10b-10b--------9----------------9-9b-----------|
D||------------------------------------------------------------------|
A||------------------------------------------------------------------|
E||------------------------------------------------------------------|
                                                               x4 fourth time skip the 
last 2 notes and jump to:

E||-------------------------------------------||
B||-------------------------------------------||
G||--------------------------------5----------||
D||------------------------------5------------||
A||-7--7-7-7-7--7-7-7-7--7-7-7-7--------------||
E||-------------------------------------------||
                                            x3
Last Time:
E||-------------------------------------------||
B||-------------------------------------------||
G||------------------------------------------*||
D||------------------------------------------*||
A||-7--7-7-7-7--7-7-7-7--7-7-7-7--3-5---------||
E||-------------------------------------------||

Main Riff 3:
E||------------------------|
B||------------------------|
G||-999-9p7p5-----5--------|
D||------------9-----------|
A||------------------------|
E||------------------------|
                        x7
Solo 1:
E||-17-15-14-----17-15-14-----17-15-14-----------------------------|
B||----------17b----------17b----------17b-17b-15b 17--------------|
G||----------------------------------------------------------------|
D||----------------------------------------------------------------|
A||----------------------------------------------------------------|
E||----------------------------------------------------------------|

E||-14--17p15p14 x8-----------17b-17b 15b 17------------------------|
B||-----------------------------------------------------------------|
G||-----------------------------------------------------------------|
D||-----------------------------------------------------------------|
A||-----------------------------------------------------------------|
E||-----------------------------------------------------------------|

E||-12--12---12--12---14--14--14--14---15--15--15----------15-----------------|
B||-15b-15b--15b-15b--17b-17b-17b-17b--18b-18b-----20b-20b----22b-22b-22b-22--|b
G||---------------------------------------------------------------------------|
D||---------------------------------------------------------------------------|
A||---------------------------------------------------------------------------|
E||---------------------------------------------------------------------------|

E||-12-15p12h15p12h15----------------------------------------------|
B||-------------------12h15p12h15p12h15----------------------------|
G||-------------------------------------12h14p12h14p12h14----------|
D||--------------------------------------------------------14/-----|
A||----------------------------------------------------------------|
E||----------------------------------------------------------------|

E||-12-15p12h15p12h15----------------------------------------------|
B||-------------------12h15p12h15p12h15----------------------------|
G||-------------------------------------12h14p12h14p12h14----------|
D||--------------------------------------------------------14/-----|
A||----------------------------------------------------------------|
E||----------------------------------------------------------------|

E||-12-15p12h15p12h15-------------------12h15p12h15p12h15-------------------|
B||-------------------12h15p12h15p12h15------------------12h15p12h15p12h15--|                  
G||-------------------------------------------------------------------------|
D||-------------------------------------------------------------------------|
A||-------------------------------------------------------------------------|
E||-------------------------------------------------------------------------|

E||-15--12-12-12-14-14-14-15b-17b-15-17/----------------------------------|
B||-----------------------------------------------------------------------|
G||-----------------------------------------------------------------------|
D||-----------------------------------------------------------------------|
A||-----------------------------------------------------------------------|
E||-----------------------------------------------------------------------|
     End Solo 1

Main Riff 3:
E||------------------------|
B||------------------------|
G||-999-9p7p5-----5--------|
D||------------9-----------|
A||------------------------|
E||------------------------|
                        x8

Main Riff 4:                           Or Continue with:
E||------------------------            E||------------------------|             
B||------------------------            B||------------------------|
G||-555 5p3p2---2----------            G||-999-9p7p5-----5--------|
D||-----------5------------            D||------------9-----------|
A||------------------------            A||------------------------|
E||------------------------            E||------------------------|
                       x16                                    x16
Solo 2:
E||-----------------------------------------------------------------------|
B||-14b--17-15b-13h15p13h15p13---13/15b15b----17b-17b-17b-----------------|                   
G||-14b------------------------14----------14-----------------------------|
D||-----------------------------------------------------------------------|
A||-----------------------------------------------------------------------|
E||-----------------------------------------------------------------------|

E||-14h-15p-14h-15p-14h15-17-14h15p14h15p14h15----------------------------|
B||---------------------------------------------17------------------------|                   
G||-----------------------------------------------------------------------|
D||-----------------------------------------------------------------------|
A||-----------------------------------------------------------------------|
E||-----------------------------------------------------------------------|

E||-14h15p14h15p14h15-----14h15p14h15p14h15----14h15p14h15p14h15----------|
B||-------------------17--------------------17-------------------17-------|                   
G||-----------------------------------------------------------------------|
D||-----------------------------------------------------------------------|
A||-----------------------------------------------------------------------|
E||-----------------------------------------------------------------------|

E||14h15p14h15p14h15----15/17b17b17b--15h17p15h17p15-14h15p14h15p14------|
B||------------------17--------------------------------------------------|
G||----------------------------------------------------------------------|
D||----------------------------------------------------------------------|
A||----------------------------------------------------------------------|
E||----------------------------------------------------------------------|

E||-10h12p10h12p10h12-9h10p9h10p9h10-----------------------------------------|
B||----------------------------------8h10p8h10p8h10p8h10p8h10p8h10p8-10b-10b-|                
G||------------------------------------------------------------------10b-10b-|
D||--------------------------------------------------------------------------|
A||--------------------------------------------------------------------------|
E||--------------------------------------------------------------------------|

E||-------------------------------------------------------------------------|
B||----17-17-20-17-17----17-17-20-17-17----17-17-20-17-17----17-17-20-17-17-|               
G||-19b---------------19b---------------19b---------------19b---------------|
D||-------------------------------------------------------------------------|
A||-------------------------------------------------------------------------|
E||-------------------------------------------------------------------------|

E||-------------------------------------------------------------------------|
B||----15-15-18-15-15----15-15-18-15-15----15-15-18-15-15----15-15-18-15-15-|                
G||-17b---------------17b---------------17b---------------17b---------------|
D||-------------------------------------------------------------------------|
A||-------------------------------------------------------------------------|
E||-------------------------------------------------------------------------|

E||-------------------------------------------------------------------------|
B||----13-13-16-13-13----13-13-16-13-13----15-15-18-15-15----15-15-18-15-15-|                
G||-15b---------------15b---------------17b---------------17b---------------|
D||-------------------------------------------------------------------------|
A||-------------------------------------------------------------------------|
E||-------------------------------------------------------------------------|

E||-------------------------------------------------------------------------|
B||-----13-15-13-15-13-15-13-15-13-15-13-15(you can trill this too)---------|
G||-17b------------------------------------------------------------14~------|
D||-------------------------------------------------------------------------|
A||-------------------------------------------------------------------------|
E||-------------------------------------------------------------------------|

E||---------------------------------------------------------------------------|
B||---17-17-20-17-17----17-17-20-17-17----17-17-20-17-17----17-17-20-17-17----|
G||19b--------------19b---------------19b---------------19b-------------------|
D||---------------------------------------------------------------------------|
A||---------------------------------------------------------------------------|
E||---------------------------------------------------------------------------|

E||------------------------------------------------------------------------------|
B||----15-15-18-15-15------15-15-18-15-15----15-15-18-15-15----15-15-18-15-15----|
G||-17b-----------------17b---------------17b---------------17b------------------|
D||------------------------------------------------------------------------------|
A||------------------------------------------------------------------------------|
E||------------------------------------------------------------------------------|

E||--------------------------------------------------------------------------|
B||---13-13-16-13-13----13-13-16-13-13-----15-15-18-15-15-----15-15-18-15-15-|        
G||15b---------------15b----------------17b---------------17b----------------|
D||--------------------------------------------------------------------------|
A||--------------------------------------------------------------------------|
E||--------------------------------------------------------------------------|

E||--------------------------------------------------|
B||--------------------------------------------------|
G||--5p3p0-5p3p0-5p3p0-5p3p0-5p3p0-0-----------------|    
D||----------------------------------2~--------------|
A||--------------------------------------------------|
E||--------------------------------------------------|
       End Solo 2

Main Riff 3:
E||------------------------|
B||------------------------|
G||-999-9p7p5-----5--------|
D||------------9-----------|
A||------------------------|
E||------------------------|
                        x6 (or x14 if you don't do optional)

[[Optional (uses for Live)
E||-0000-10-0000-9-0000-7-0000-6-0000-5-0000-3-0000-2-0000-1--------|
B||-----------------------------------------------------------------|
G||-----------------------------------------------------------------|
D||-----------------------------------------------------------------|
A||-----------------------------------------------------------------|
E||-----------------------------------------------------------------|

Main Riff 3:
E||------------------------|
B||------------------------|
G||-999-9p7p5-----5--------|
D||------------9-----------|
A||------------------------|
E||------------------------|
                        x8]]

End:
E||------------------------------------------|
B||------------------------------------------|
G||-6--4--2~------------------------3/7--3~~-|
D||-----------5--4--2----------5~~-----------|
A||-------------------5--3--2----------------|
E||------------------------------------------|

Legend:
h = hammer-on
p = Pull-off
~ = hold note
~~= Hold note longer
/ = Slide up
\ = Slide Down
Suggest correction
Creating personal tab
Creating personal tab
You can edit any tab online and save it as your Personal.

You can edit, replace or remove any tab part or add personal notes – all changes will be seen only by you.

Personal tabs can be accessed anytime from any device, even offline.
Learn more »
Give kudos to tab author, rate the tab!
1 2 3 4 5
comments
print report bad tab
1 comment total.
0 reply
betterthansmith 10 Mar 31, 2015 03:49 AM

For the fill, do you mean hammer on to the 8th fret or slide tot eh 8th fret? Because you can't pull off onto a higher fret.

guest
You may want to rate the tab now too:
select rating
Wanna post a correction for this tab? Suggest correction