Oops, an error
Loading. Please wait.

Transylvania tab

version 4
version 4
1,123 views 24 this week
no commentswrite comment
1 2 3 4 5
x 11
add to favorites
×
Save as Personal and add changes to this tab that will be seen only by you. Learn more ›
×
You can save this tab as Personal to edit and correct it or add notes. All changes will be seen only by you. Learn more »
launch autoscroll
font size
0
reset
how to read this tab
guitar tuner
backing track
0:00
0:00
edit
Autoscroll
slow
fast
+/-
esc
set tempo
stop
Author
Difficulty
                                 Transylvania 
                                  
                                             
                                 Iron Maiden

Instruments:
- G #1
- G #2
- G #3


Guitar #1:

Dave Murray

            Intro                                          
     S      E     S S S S E  S S S S E  S S S S E.  E.   4x
E||----||------------------------------------------------||
B||----||------------------------------------------------||
G||----||*----------------------------------------------*||
D||----||*------------------------------------------3---*||
A||----||---5-----5-5-5-5-5--5-5-5-5-5--5-5-5-5-3--------||
E||----||------------------------------------------------||


   E  S S S S E  S S S S E  S S S S E.  E.   3x
---------------------------------------------||
---------------------------------------------||
*-------------------------------------------*||
*---------------------------------------5---*||
---7--7-7-7-7-7--7-7-7-7-7--7-7-7-7-5--------||
---------------------------------------------||


  E  S S S S E  S S S S E  S S S S E.  E.   
-------------------------------------------|
-------------------------------------------|
-------------------------------------------|
-------------------------------------------|
--7--7-7-7-7-7--7-7-7-7-7--7-7-7-7-3---5---|
-------------------------------------------|


    Riff A                                     
    E      S S E  E  E  E  E  S S E  E  E  E   
|---------------------------------------------|
|---------------------------------------------|
|*--------------------------------------------|
|*--2------2-2-2--2--5--4--2--2-2-2--2--5--4--|
|---------------------------------------------|
|---------------------------------------------|


  E  S S E  E  E  E  E  S S E  E  E  E   
----------------------------------------|
----------------------------------------|
----------------------------------------|
---------------------2--2-2-2--2--5--4--|
--5--5-5-5--5--2--5---------------------|
----------------------------------------|


  E  S S E  E  E  E  E  S S E  E  E  E   
----------------------------------------|
----------------------------------------|
----------------------------------------|
--2--2-2-2--2--5--4--2--2-2-2--2--5--4--|
----------------------------------------|
----------------------------------------|


  E  S S E  E  E  E  E  S S E  E  E  E   
----------------------------------------|
----------------------------------------|
----------------------------------------|
---------------------2--2-2-2--2--------|
--5--5-5-5--5--2--5---------------5--4--|
----------------------------------------|


  E  S S E  E  E  E  E  S S E  E  E  E   
----------------------------------------|
----------------------------------------|
----------------------------------------|
----------------------------------------|
--2--2-2-2--2--5--4--2--2-2-2--2--5--4--|
----------------------------------------|


  E  S S E  E  E  E  E  S S E  E  E  E   
----------------------------------------|
----------------------------------------|
----------------------------------------|
----------------------------------------|
---------------------2--2-2-2--2--5--4--|
--5--5-5-5--5--2--5---------------------|


  E  S S E  E  E  E  E  S S E  E  E  E   
----------------------------------------|
----------------------------------------|
----------------------------------------|
----------------------------------------|
--2--2-2-2--2--5--4--2--2-2-2--2--5--4--|
----------------------------------------|


  E  S S E  E  E  E  E  S S E  E  E  E     
-----------------------------------------||
-----------------------------------------||
----------------------------------------*||
----------------------------------5--4--*||
---------------------2--2-2-2--2---------||
--5--5-5-5--5--2--5----------------------||


  E  S S E  E  E  E  E  S S E  E  E  E   
----------------------------------------|
----------------------------------------|
----------------------------------------|
----------------------------------------|
---------------------2--2-2-2--2--L-----|
--5--5-5-5--5--2--5---------------------|


    Riff B                                                                    
    Q      E  Q    E  E  E  E  Q    E     Q    E  Q    E  E  E  E  Q    E   3x
|--------------------------------------|------------------------------------||
|--------------------------------------|------------------------------------||
|*--------------------7--7--7--7-------|-----------------------------------*||
|*--9---------7-------5--5--5--5-------|--5-------7-------9--9--9--9-------*||
|---7---------5------------------------|--3-------5-------7--7--7--7--------||
|--------------------------------------|------------------------------------||


  Q    E  Q    E  E  E  E  Q    E     Q    E  Q    E   
-----------------------------------|------------------|
-----------------------------------|------------------|
------------------7--7--7--7-------|------------------|
--9-------7-------5--5--5--5-------|--5-------7-------|
--7-------5------------------------|--3-------5-------|
-----------------------------------|------------------|


  Riff A                                     
  E      S S E  E  E  E  E  S S E  E  E  E   
--------------------------------------------|
--------------------------------------------|
--------------------------------------------|
--2------2-2-2--2--5--4--2--2-2-2--2--5--4--|
--------------------------------------------|
--------------------------------------------|


  E  S S E  E  E  E  E  S S E  E  E  E   
----------------------------------------|
----------------------------------------|
----------------------------------------|
---------------------2--2-2-2--2--5--4--|
--5--5-5-5--5--2--5---------------------|
----------------------------------------|


  E  S S E  E  E  E  E  S S E  E  E  E   
----------------------------------------|
----------------------------------------|
----------------------------------------|
--2--2-2-2--2--5--4--2--2-2-2--2--5--4--|
----------------------------------------|
----------------------------------------|


  E  S S E  E  E  E  E  S S E  E  E  E   
----------------------------------------|
----------------------------------------|
----------------------------------------|
---------------------2--2-2-2--2--------|
--5--5-5-5--5--2--5---------------5--4--|
----------------------------------------|


  E  S S E  E  E  E  E  S S E  E  E  E   
----------------------------------------|
----------------------------------------|
----------------------------------------|
----------------------------------------|
--2--2-2-2--2--5--4--2--2-2-2--2--5--4--|
----------------------------------------|


  E  S S E  E  E  E  E  S S E  E  E  E   
----------------------------------------|
----------------------------------------|
----------------------------------------|
----------------------------------------|
---------------------2--2-2-2--2--5--4--|
--5--5-5-5--5--2--5---------------------|


  E  S S E  E  E  E  E  S S E  E  E  E   
----------------------------------------|
----------------------------------------|
----------------------------------------|
----------------------------------------|
--2--2-2-2--2--5--4--2--2-2-2--2--5--4--|
----------------------------------------|


  E  S S E  E  E  E  E  S S E  E  E  E   
----------------------------------------|
----------------------------------------|
----------------------------------------|
----------------------------------------|
---------------------2--2-2-2--2--L-----|
--5--5-5-5--5--2--5---------------------|


    Riff B                                                                    
    Q      E  Q    E  E  E  E  Q    E     Q    E  Q    E  E  E  E  Q    E   3x
|--------------------------------------|------------------------------------||
|--------------------------------------|------------------------------------||
|*--------------------7--7--7--7-------|-----------------------------------*||
|*--9---------7-------5--5--5--5-------|--5-------7-------9--9--9--9-------*||
|---7---------5------------------------|--3-------5-------7--7--7--7--------||
|--------------------------------------|------------------------------------||


  Q    E  Q    E  E  E  E  Q    E     Q    E  Q    E   
-----------------------------------|------------------|
-----------------------------------|------------------|
------------------7--7--7--7-------|------------------|
--9-------7-------5--5--5--5-------|--5-------7-------|
--7-------5------------------------|--3-------5-------|
-----------------------------------|------------------|


    Break                                          
    E     S S S S E  S S S S E  S S S S E.  E.   3x
|------------------------------------------------||
|------------------------------------------------||
|*----------------------------------------------*||
|*------------------------------------------5---*||
|---7-----7-7-7-7-7--7-7-7-7-7--7-7-7-7-5--------||
|------------------------------------------------||


  E  S S S S E  S S S S E  S S S S E.  E.   
-------------------------------------------|
-------------------------------------------|
-------------------------------------------|
-------------------------------------------|
--7--7-7-7-7-7--7-7-7-7-7--7-7-7-7-3---5---|
-------------------------------------------|


  Riff C                                            
  E      S E  S S  S  S E  E.  S E  S S  S  S E  S  
---------------------------------------------------|
--5------5-8--8-8p-7p-5----5---5-8--8-8p-7p-5----5-|
------------------------7---------------------7----|
---------------------------------------------------|
---------------------------------------------------|
---------------------------------------------------|


  E  S E  S S  S  S E  E.  S E  S S  S  S E  S  
-----------------------------------------------|
--L--5-8--8-8p-7p-5----5---5-8--8-8p-7p-5----5-|
--------------------7---------------------7----|
-----------------------------------------------|
-----------------------------------------------|
-----------------------------------------------|


  E  S E  S S  S  S E  E.  S E  S S  S  S E  S  
-----------------------------------------------|
--L--5-8--8-8p-7p-5----5---5-8--8-8p-7p-5----5-|
--------------------7---------------------7----|
-----------------------------------------------|
-----------------------------------------------|
-----------------------------------------------|


  Solo 1 Adrian Smith                                            
  E                   S E  S S  S  S E  E.  S E  S S  S  S E  S  
----------------------------------------------------------------|
--L-------------------5-8--8-8p-7p-5----5---5-8--8-8p-7p-5----5-|
-------------------------------------7---------------------7----|
----------------------------------------------------------------|
----------------------------------------------------------------|
----------------------------------------------------------------|


  E  S E  S S  S  S E  E.  S E  S S  S  S E  S  
-----------------------------------------------|
--L--5-8--8-8p-7p-5----5---5-8--8-8p-7p-5----5-|
--------------------7---------------------7----|
-----------------------------------------------|
-----------------------------------------------|
-----------------------------------------------|


  E  S E  S S  S  S E  E.  S E  S S  S  S E  S  
-----------------------------------------------|
--L--5-8--8-8p-7p-5----5---5-8--8-8p-7p-5----5-|
--------------------7---------------------7----|
-----------------------------------------------|
-----------------------------------------------|
-----------------------------------------------|


  E  S E  S S  S  S E  E.  S E  S S  S  S E  S  
-----------------------------------------------|
--L--5-8--8-8p-7p-5----5---5-8--8-8p-7p-5----5-|
--------------------7---------------------7----|
-----------------------------------------------|
-----------------------------------------------|
-----------------------------------------------|


  E  S E  S S  S  S E  E.  S E  S S  S  S E  S  
-----------------------------------------------|
--L--5-8--8-8p-7p-5----5---5-8--8-8p-7p-5----5-|
--------------------7---------------------7----|
-----------------------------------------------|
-----------------------------------------------|
-----------------------------------------------|


  E  S E  S S  S  S E  E.  S E  S S  S  S E  S  
-----------------------------------------------|
--L--5-8--8-8p-7p-5----5---5-8--8-8p-7p-5----5-|
--------------------7---------------------7----|
-----------------------------------------------|
-----------------------------------------------|
-----------------------------------------------|


  E  S E  S S  S  S E  E.  S E  S S  S  S E  S  
-----------------------------------------------|
--L--5-8--8-8p-7p-5----5---5-8--8-8p-7p-5----5-|
--------------------7---------------------7----|
-----------------------------------------------|
-----------------------------------------------|
-----------------------------------------------|


  E  S E  S S  S  S E  E.  S E  S S  S  S E  S  
-----------------------------------------------|
--L--5-8--8-8p-7p-5----5---5-8--8-8p-7p-5----5-|
--------------------7---------------------7----|
-----------------------------------------------|
-----------------------------------------------|
-----------------------------------------------|


  E  S E  S S  S  S E  E.  S E  S S  S  S E  S  
-----------------------------------------------|
--L--5-8--8-8p-7p-5----5---5-8--8-8p-7p-5----5-|
--------------------7---------------------7----|
-----------------------------------------------|
-----------------------------------------------|
-----------------------------------------------|


  E  S E  S S  S  S E  E.  S E  S S  S  S E  S  
-----------------------------------------------|
--L--5-8--8-8p-7p-5----5---5-8--8-8p-7p-5----5-|
--------------------7---------------------7----|
-----------------------------------------------|
-----------------------------------------------|
-----------------------------------------------|


  E  S E  S S  S  S E  E.  S E  S S  S  S E  S  
-----------------------------------------------|
--L--5-8--8-8p-7p-5----5---5-8--8-8p-7p-5----5-|
--------------------7---------------------7----|
-----------------------------------------------|
-----------------------------------------------|
-----------------------------------------------|


  E  S E  S S  S  S E  E.  S E  S S  S  S E  S  
-----------------------------------------------|
--L--5-8--8-8p-7p-5----5---5-8--8-8p-7p-5----5-|
--------------------7---------------------7----|
-----------------------------------------------|
-----------------------------------------------|
-----------------------------------------------|


  E  S E  S S  S  S E  E.  S E  S S  S  S E  S  
-----------------------------------------------|
--L--5-8--8-8p-7p-5----5---5-8--8-8p-7p-5----5-|
--------------------7---------------------7----|
-----------------------------------------------|
-----------------------------------------------|
-----------------------------------------------|


  Riff C                                            
  E      S E  S S  S  S E  E.  S E  S S  S  S E  S  
---------------------------------------------------|
--L------5-8--8-8p-7p-5----5---5-8--8-8p-7p-5----5-|
------------------------7---------------------7----|
---------------------------------------------------|
---------------------------------------------------|
---------------------------------------------------|


  E  S E  S S  S  S E  E.  S E  S S  S  S E  S  
-----------------------------------------------|
--L--5-8--8-8p-7p-5----5---5-8--8-8p-7p-5----5-|
--------------------7---------------------7----|
-----------------------------------------------|
-----------------------------------------------|
-----------------------------------------------|


  E  S E  S S  S  S E  E.  S E  S S  S  S E  S  
-----------------------------------------------|
--L--5-8--8-8p-7p-5----5---5-8--8-8p-7p-5----5-|
--------------------7---------------------7----|
-----------------------------------------------|
-----------------------------------------------|
-----------------------------------------------|


  E  S E  S S  S  S E  E.  S E  S S  S  S E  S  
-----------------------------------------------|
--L--5-8--8-8p-7p-5----5---5-8--8-8p-7p-5----5-|
--------------------7---------------------7----|
-----------------------------------------------|
-----------------------------------------------|
-----------------------------------------------|


  Break                                            
  E     S E  S S  S  S E  E.  S E  S S  S  S E  S  
--------------------------------------------------|
--L-----5-8--8-8p-7p-5----5---5-8--8-8p-7p-5----5-|
-----------------------7---------------------7----|
--------------------------------------------------|
--------------------------------------------------|
--------------------------------------------------|


  E  S E  S S  S  S E  E.  S E  S S  S  S E  S  
-----------------------------------------------|
--L--5-8--8-8p-7p-5----5---5-8--8-8p-7p-5----5-|
--------------------7---------------------7----|
-----------------------------------------------|
-----------------------------------------------|
-----------------------------------------------|


  E  S E  S S  S  S E  E.  S E  S S  S  S E  S  
-----------------------------------------------|
--L--5-8--8-8p-7p-5----5---5-8--8-8p-7p-5----5-|
--------------------7---------------------7----|
-----------------------------------------------|
-----------------------------------------------|
-----------------------------------------------|


  E  S E  S S  S  S E  E.  S E  S S  S  S E  S  
-----------------------------------------------|
--L--5-8--8-8p-7p-5----5---5-8--8-8p-7p-5----8-|
--------------------7---------------------7----|
-----------------------------------------------|
-----------------------------------------------|
-----------------------------------------------|


  Riff D                                                    
  E      S  E   S  S  S  S  E  E.  S  E   S  S  S  S  E  S  
-----------------------------------------------------------|
--L------8-12--12-12-10p-8-----8---8-12--12-12-10p-8-----8-|
---------------------------11------------------------11----|
-----------------------------------------------------------|
-----------------------------------------------------------|
-----------------------------------------------------------|


  E  S  E   S  S  S  S  E  E.  S  E   S  S  S  S  E  S  
-------------------------------------------------------|
--L--8-12--12-12-10p-8-----8---8-12--12-12-10p-8-----8-|
-----------------------11------------------------11----|
-------------------------------------------------------|
-------------------------------------------------------|
-------------------------------------------------------|


  E  S  E   S  S  S  S  E  E.  S  E   S  S  S  S  E  S  
-------------------------------------------------------|
--L--8-12--12-12-10p-8-----8---8-12--12-12-10p-8-----8-|
-----------------------11------------------------11----|
-------------------------------------------------------|
-------------------------------------------------------|
-------------------------------------------------------|


  E  S  E   S  S  S  S  E  E.  S  E   S  S  S  S  E  S  
-------------------------------------------------------|
--L--8-12--12-12-10p-8-----8---8-12--12-12-10p-8-----8-|
-----------------------11------------------------11----|
-------------------------------------------------------|
-------------------------------------------------------|
-------------------------------------------------------|


   Solo 2 Dave Murray                            
   H                  Q       H          Q       
------------------------------------------------|
--15-----------------15pb----15b--------15pb----|
--14b-------------------------------------------|
------------------------------------------------|
------------------------------------------------|
------------------------------------------------|


   tr                                           
   Q         E   S   S  S  E.   H         Q     
-----------------------------------------------|
--13(15)----13--15p-13----15b---L--------------|
-----------------------14----------------14----|
-----------------------------------------------|
-----------------------------------------------|
-----------------------------------------------|


   H.             Q.       E.     E.   
--------------------------------------|
--17b------------17b------17pb---17---|
--------------------------------------|
--------------------------------------|
--------------------------------------|
--------------------------------------|


         tr                                        
   Q     H             E   Q.       S   S   S   S  
--14----14(15)--------14--14~------15p-14h-17p-14-|
--------------------------------------------------|
--------------------------------------------------|
--------------------------------------------------|
--------------------------------------------------|
--------------------------------------------------|


   |---3---|   |---3---|   |--3--|   |---3---|   |---3---|  |---3--|   |---3---|
   S   S   S   S   S   S   S  S  S   S   S   S   S   S   S  S  S   S   S   S   S
--14h-15p-14h-15p-14h-15p-14----14h-15p-14h-15p-14h-15p-14----14h-15p-14h-15p-14
-----------------------------17----------------------------17-------------------
--------------------------------------------------------------------------------
--------------------------------------------------------------------------------
--------------------------------------------------------------------------------
--------------------------------------------------------------------------------


          |---3---|   |---3---|   |---3---|   |---3---|   |---3---|  |---3---|  
   Q      S   S   S   S   S   S   S   S   S   S   S   S   S   S   S  S   S   S  
--17b----15h-17p-15h-17p-15h-17p-15h-17p-15h-17p-15h-17p-15h-17p-15-14h-15p-14h-
--------------------------------------------------------------------------------
--------------------------------------------------------------------------------
--------------------------------------------------------------------------------
--------------------------------------------------------------------------------
--------------------------------------------------------------------------------


   |---3---|   |---3---|   |---3---|   |---3---|   |---3---|   |---3---|   |---3
   S   S   S   S   S   S   S   S   S   S   S   S   S   S   S   S   S   S   S   S
--------------------------------------------------------------------------------
--15h-17p-15h-17p-15h-17p-15h-17p-15h-17p-15h-17p-15h-17p-15h-17p-15h-17S-14h-15
--------------------------------------------------------------------------------
--------------------------------------------------------------------------------
--------------------------------------------------------------------------------
--------------------------------------------------------------------------------


   |---3---|   |---3---|   |---3---|   |---3---|   |---3---|   |---3---|        
   S   S   S   S   S   S   S   S   S   S   S   S   S   S   S   S   S   S  Q.    
--------------------------------------------------------------------------------
-------------------------------------------------------------------------15-----
--12h-14p-12h-14p-12h-14p-12h-14p-12h-14p-12h-14p-12h-14p-12h-14p-12h-14-14b----
--------------------------------------------------------------------------------
--------------------------------------------------------------------------------
--------------------------------------------------------------------------------


   S   S  S   S   S  S  S   S  S   S   S  S  S   S  S   S   S  S  S   S  S   S  
------12-12h-15p-12-12-----12-12h-15p-12-12-----12-12h-15p-12-12-----12-12h-15p-
--15b------------------15b------------------15b------------------15b------------
--------------------------------------------------------------------------------
--------------------------------------------------------------------------------
--------------------------------------------------------------------------------
--------------------------------------------------------------------------------


   S   S  S   S   S  S  S   S  S   S   S  S  S   S  S   S   S  S  S   S  S   S  
------10-10h-13p-10-10-----10-10h-13p-10-10-----10-10h-13p-10-10-----10-10h-13p-
--13b------------------13b------------------13b------------------13b------------
--------------------------------------------------------------------------------
--------------------------------------------------------------------------------
--------------------------------------------------------------------------------
--------------------------------------------------------------------------------


   S  S S   S  S S  S  S S   S  S S  S   S  S   S   S  S  S   S  S   S   S  S  
------8-8h-11p-8-8-----8-8h-11p-8-8-----10-10h-13p-10-10-----10-10h-13p-10-10-|
--11b--------------11b--------------13b------------------13b------------------|
------------------------------------------------------------------------------|
------------------------------------------------------------------------------|
------------------------------------------------------------------------------|
------------------------------------------------------------------------------|


                                             tr                   
   S   S  S   S   S  S  S   S  S   S   S  S  Q.          Q.       
------12-12h-15p-12-12-----12-12h-15p-12-12----------------------|
--15b------------------15b------------------15(13)---------------|
--------------------------------------------------------14~------|
-----------------------------------------------------------------|
-----------------------------------------------------------------|
-----------------------------------------------------------------|


   S   S  S   S   S  S  S   S  S   S   S  S  S   S  S   S   S  S  S   S  S   S  
------12-12h-15p-12-12-----12-12h-15p-12-12-----12-12h-15p-12-12-----12-12h-15p-
--15b------------------15b------------------15b------------------15b------------
--------------------------------------------------------------------------------
--------------------------------------------------------------------------------
--------------------------------------------------------------------------------
--------------------------------------------------------------------------------


   S   S  S   S   S  S  S   S  S   S   S  S  S   S  S   S   S  S  S   S  S   S  
------10-10h-13p-10-10-----10-10h-13p-10-10-----10-10h-13p-10-10-----10-10h-13p-
--13b------------------13b------------------13b------------------13b------------
--------------------------------------------------------------------------------
--------------------------------------------------------------------------------
--------------------------------------------------------------------------------
--------------------------------------------------------------------------------


   S  S S   S  S S  S  S S   S  S S  S   S  S   S   S  S  S   S  S   S   S  S  
------8-8h-11p-8-8-----8-8h-11p-8-8-----10-10h-13p-10-10-----10-10h-13p-10-10-|
--11b--------------11b--------------13b------------------13b------------------|
------------------------------------------------------------------------------|
------------------------------------------------------------------------------|
------------------------------------------------------------------------------|
------------------------------------------------------------------------------|


  S  S  S S  S  S S  S  S S  S  S Q    H          
-------------------------------------------------|
--5p-3p-0-5p-3p-0-5p-3p-0-5p-3p-0----------------|
----------------------------------4----2b--------|
-------------------------------------------------|
-------------------------------------------------|
-------------------------------------------------|


  Riff C                                            
  E      S E  S S  S  S E  E.  S E  S S  S  S E  S  
---------------------------------------------------|
--5------5-8--8-8p-7p-5----5---5-8--8-8p-7p-5----5-|
------------------------7---------------------7----|
---------------------------------------------------|
---------------------------------------------------|
---------------------------------------------------|


  E  S E  S S  S  S E  E.  S E  S S  S  S E  S  
-----------------------------------------------|
--L--5-8--8-8p-7p-5----5---5-8--8-8p-7p-5----5-|
--------------------7---------------------7----|
-----------------------------------------------|
-----------------------------------------------|
-----------------------------------------------|


  E  S E  S S  S  S E  E.  S E  S S  S  S E  S  
-----------------------------------------------|
--L--5-8--8-8p-7p-5----5---5-8--8-8p-7p-5----5-|
--------------------7---------------------7----|
-----------------------------------------------|
-----------------------------------------------|
-----------------------------------------------|


  E  S E  S S  S  S E  E.  S E  S S  S  S E  S  
-----------------------------------------------|
--L--5-8--8-8p-7p-5----5---5-8--8-8p-7p-5----8-|
--------------------7---------------------7----|
-----------------------------------------------|
-----------------------------------------------|
-----------------------------------------------|


  Riff D                                                    
  E      S  E   S  S  S  S  E  E.  S  E   S  S  S  S  E  S  
-----------------------------------------------------------|
--L------8-12--12-12-10p-8-----8---8-12--12-12-10p-8-----8-|
---------------------------11------------------------11----|
-----------------------------------------------------------|
-----------------------------------------------------------|
-----------------------------------------------------------|


  E  S  E   S  S  S  S  E  E.  S  E   S  S  S  S  E  S  
-------------------------------------------------------|
--L--8-12--12-12-10p-8-----8---8-12--12-12-10p-8-----8-|
-----------------------11------------------------11----|
-------------------------------------------------------|
-------------------------------------------------------|
-------------------------------------------------------|


                                                           tr                   
  E  S  E   S  S   S  S  E  E.  S  E   S  S   S  S  E.     W.                   
--------------------------------------------------------|----------------------|
--L--8-12--12-12p-10p-8-----8---8-12--12-12p-10p-8------|----------------------|
------------------------11-------------------------11---|----------------------|
--------------------------------------------------------|--2-------------------|
--------------------------------------------------------|--2(0)----------------|
--------------------------------------------------------|--0-------------------|


  W.                  W                 H          
-------------------|------------------------------|
-------------------|------------------------------|
-------------------|------------------------------|
--L----------------|------------------------------|
--L----------------|--L----------------(2)--------|
--L----------------|------------------------------|


                                  Outro                        
  H.            H.                Q.     Q.     Q.     Q.      
------------------------------|-------------------------------|
------------------------------|-------------------------------|
------------------------------|--/4---------------------------|
---------------(2)------------|----------7------5------4------|
--L------------(2)------------|-------------------------------|
---------------(0)------------|-------------------------------|


  Q.     H         H        E     W.                  W.                
-------------------------------|-------------------|-------------------|
-------------------------------|-------------------|-------------------|
-------------------------------|-------------------|-------------------|
------------------/5--------L--|--2----------------|--L----------------|
--7------5---------------------|--2----------------|--L----------------|
-------------------------------|--0----------------|--L----------------|


  E.  E.  E.  E.  E.  E.  E.  E.     E.  E.  E.  E.  E.  E.  E.  E.   
------------------0---------------|------------------0---------------|
----------------------0-----------|----------------------0-----------|
--------------0-----------0-------|--------------0-----------0-------|
----------4-------------------4---|----------4-------------------4---|
------2---------------------------|------2---------------------------|
--0-------------------------------|--0-------------------------------|


  E.  E.  E.  E.  E.  E.  E.  E.     E.  E.  E.  E.  E.  E.  E.  E.   
------------------0---------------|------------------0---------------|
----------------------0-----------|----------------------0-----------|
--------------0-----------0-------|--------------0-----------0-------|
----------4-------------------4---|----------4-------------------4---|
------2---------------------------|------2---------------------------|
--0-------------------------------|--0-------------------------------|


  v              NH   NH   NH                                  
  H        E     S    S    H.               W.                 
--0--------L------------<>12------------|---L----------------||
--0--------L-------<>12-----------------|--------------------||
--0--------L--<>12----------------------|--------------------||
--2--------L----------------------------|--------------------||
--2--------L----------------------------|--------------------||
--0--------L----------------------------|--------------------||




Guitar #2:
                                 
Adrian Smith

            Intro                                                               
     S      E     W                E.  E.   4x   E  W                E.  E.   3x
E||----||-----------------------------------||--------------------------------||
B||----||-----------------------------------||--------------------------------||
G||----||*-----------------------------5---*||*--------------------------7---*||
D||----||*--7----------------------5---3---*||*--9-------------------7---5---*||
A||----||---5----------------------3--------||---7-------------------5--------||
E||----||-----------------------------------||--------------------------------||


                                   Riff A                                     
  E  W                E.  E.       E      S S E  E  E  E  E  S S E  E  E  E   
------------------------------||---------------------------------------------|
------------------------------||---------------------------------------------|
------------------------------||*--------------------------------------------|
--9-------------------5---7---||*--2------2-2-2--2--5--4--2--2-2-2--2--5--4--|
--7-------------------3---5---||---------------------------------------------|
------------------------------||---------------------------------------------|


  E  S S E  E  E  E  E  S S E  E  E  E   
----------------------------------------|
----------------------------------------|
----------------------------------------|
---------------------2--2-2-2--2--5--4--|
--5--5-5-5--5--2--5---------------------|
----------------------------------------|


  E  S S E  E  E  E  E  S S E  E  E  E   
----------------------------------------|
----------------------------------------|
----------------------------------------|
--2--2-2-2--2--5--4--2--2-2-2--2--5--4--|
----------------------------------------|
----------------------------------------|


  E  S S E  E  E  E  E  S S E  E  E  E   
----------------------------------------|
----------------------------------------|
----------------------------------------|
---------------------2--2-2-2--2--------|
--5--5-5-5--5--2--5---------------5--4--|
----------------------------------------|


  E  S S E  E  E  E  E  S S E  E  E  E   
----------------------------------------|
----------------------------------------|
----------------------------------------|
----------------------------------------|
--2--2-2-2--2--5--4--2--2-2-2--2--5--4--|
----------------------------------------|


  E  S S E  E  E  E  E  S S E  E  E  E   
----------------------------------------|
----------------------------------------|
----------------------------------------|
----------------------------------------|
---------------------2--2-2-2--2--5--4--|
--5--5-5-5--5--2--5---------------------|


  E  S S E  E  E  E  E  S S E  E  E  E   
----------------------------------------|
----------------------------------------|
----------------------------------------|
----------------------------------------|
--2--2-2-2--2--5--4--2--2-2-2--2--5--4--|
----------------------------------------|


  E  S S E  E  E  E  E  S S E  E  E  E     
-----------------------------------------||
-----------------------------------------||
----------------------------------------*||
----------------------------------5--4--*||
---------------------2--2-2-2--2---------||
--5--5-5-5--5--2--5----------------------||


  E  S S E  E  E  E  E  S S E  E  E  E   
----------------------------------------|
----------------------------------------|
----------------------------------------|
----------------------------------------|
---------------------2--2-2-2--2--L-----|
--5--5-5-5--5--2--5---------------------|


     Riff B                                       
     Q.       Q.       E    E     E     Q.        
|------------------------------------------------|
|---12-------10--------8----8-----8-----8--------|
|*--14b------12b------10b--10pb--10pb--10pb------|
|*-----------------------------------------------|
|------------------------------------------------|
|------------------------------------------------|


   E    E  E   E   E   E   E    E  E  Q     E   3x
------------------------------------------------||
--------------10--------------------------------||
--12p--11--9------12--11--12p--11--9--9~-------*||
-----------------------------------------------*||
------------------------------------------------||
------------------------------------------------||


   Q.       Q.       E    E     E     Q.           E    E  E   E   E   E   
-----------------------------------------------|--------------------------|
--12-------10--------8----8-----8-----8--------|--------------10----------|
--14b------12b------10b--10pb--10pb--10pb------|--12p--11--9------12--11--|
-----------------------------------------------|--------------------------|
-----------------------------------------------|--------------------------|
-----------------------------------------------|--------------------------|


  Riff A                                                                  
  W                 Q     E  E     E  S S E  E  E  E  E  S S E  E  E  E   
--------------------------------|----------------------------------------|
--------------------------------|----------------------------------------|
--9~----------------L\----------|----------------------------------------|
--------------------------5--4--|---------------------2--2-2-2--2--5--4--|
--------------------------------|--5--5-5-5--5--2--5---------------------|
--------------------------------|----------------------------------------|


  E  S S E  E  E  E  E  S S E  E  E  E   
----------------------------------------|
----------------------------------------|
----------------------------------------|
--2--2-2-2--2--5--4--2--2-2-2--2--5--4--|
----------------------------------------|
----------------------------------------|


  E  S S E  E  E  E  E  S S E  E  E  E   
----------------------------------------|
----------------------------------------|
----------------------------------------|
---------------------2--2-2-2--2--------|
--5--5-5-5--5--2--5---------------5--4--|
----------------------------------------|


  E  S S E  E  E  E  E  S S E  E  E  E   
----------------------------------------|
----------------------------------------|
----------------------------------------|
----------------------------------------|
--2--2-2-2--2--5--4--2--2-2-2--2--5--4--|
----------------------------------------|


  E  S S E  E  E  E  E  S S E  E  E  E   
----------------------------------------|
----------------------------------------|
----------------------------------------|
----------------------------------------|
---------------------2--2-2-2--2--5--4--|
--5--5-5-5--5--2--5---------------------|


  E  S S E  E  E  E  E  S S E  E  E  E   
----------------------------------------|
----------------------------------------|
----------------------------------------|
----------------------------------------|
--2--2-2-2--2--5--4--2--2-2-2--2--5--4--|
----------------------------------------|


  E  S S E  E  E  E  E  S S E  E  E  E   
----------------------------------------|
----------------------------------------|
----------------------------------------|
----------------------------------------|
---------------------2--2-2-2--2--L-----|
--5--5-5-5--5--2--5---------------------|


     Riff B                                       
     Q.       Q.       E    E     E     Q.        
|------------------------------------------------|
|---12-------10--------8----8-----8-----8--------|
|*--14b------12b------10b--10pb--10pb--10pb------|
|*-----------------------------------------------|
|------------------------------------------------|
|------------------------------------------------|


   E    E  E   E   E   E   E    E  E  Q     E   3x
------------------------------------------------||
--------------10--------------------------------||
--12p--11--9------12--11--12p--11--9--9~-------*||
-----------------------------------------------*||
------------------------------------------------||
------------------------------------------------||


   Q.       Q.       E    E     E     Q.           E    E  E   E   E   E   
-----------------------------------------------|--------------------------|
--12-------10--------8----8-----8-----8--------|--------------10----------|
--14b------12b------10b--10pb--10pb--10pb------|--12p--11--9------12--11--|
-----------------------------------------------|--------------------------|
-----------------------------------------------|--------------------------|
-----------------------------------------------|--------------------------|


    Break                                                            
    E     W                E.  E.   3x  E  W                E.  E.   
|-----------------------------------||------------------------------|
|-----------------------------------||------------------------------|
|*-----------------------------7---*||------------------------------|
|*--9----------------------7---5---*||--9-------------------5---7---|
|---7----------------------5--------||--7-------------------3---5---|
|-----------------------------------||------------------------------|


  Riff C                                            
  E      S E  S S S  S  E  E.  S E  S S S  S  E  S  
---------------------------------------------------|
---------------------------------------------------|
-----------4--4-4----------------4--4-4------------|
--5------5--------7p-5p-4--5---5--------7p-5p-4--5-|
---------------------------------------------------|
---------------------------------------------------|


  E  S E  S S S  S  E  E.  S E  S S S  S  E  S  
-----------------------------------------------|
-----------------------------------------------|
-------4--4-4----------------4--4-4------------|
--L--5--------7p-5p-4--5---5--------7p-5p-4--5-|
-----------------------------------------------|
-----------------------------------------------|


  E  S E  S S S  S  E  E.  S E  S S S  S  E  S  
-----------------------------------------------|
-----------------------------------------------|
-------4--4-4----------------4--4-4------------|
--L--5--------7p-5p-4--5---5--------7p-5p-4--5-|
-----------------------------------------------|
-----------------------------------------------|


  Solo 1 Adrian Smith                                               
  E                   S E  S S S  S  E  E.  S E  S S E   S   S   S  
--------------------------------------------------------17p-15p-14-|
-------------------------------------------------------------------|
------------------------4--4-4----------------4--4-4---------------|
--L-------------------5--------7p-5p-4--5---5----------------------|
-------------------------------------------------------------------|
-------------------------------------------------------------------|


   H         S  S   S   S  H         S  S   S   S  
---------------17p-15p-14--------------17p-15p-14-|
--17~--------L------------17~--------L------------|
--------------------------------------------------|
--------------------------------------------------|
--------------------------------------------------|
--------------------------------------------------|


   Q.       E.    E.    H.             
--------------------------------------|
--17b------17b---15~---17~------------|
--------------------------------------|
--------------------------------------|
--------------------------------------|
--------------------------------------|


   S   S   S  S   S   S  S   S   S  S   S   S  S   S   S  S   S   S  S   S   S  
--17p-15p-14-17p-15p-14-17p-15p-14-17p-15p-14-17p-15p-14-17p-15p-14-17p-15p-14-1
--------------------------------------------------------------------------------
--------------------------------------------------------------------------------
--------------------------------------------------------------------------------
--------------------------------------------------------------------------------
--------------------------------------------------------------------------------


   Q      E    E.    E.    H.             
--17b----17b--17b---17b---17b------------|
-----------------------------------------|
-----------------------------------------|
-----------------------------------------|
-----------------------------------------|
-----------------------------------------|


   Q      Q.       E    Q      Q      Q        H.             Q.       Q.       
--12-----12-------12---12-----12-----12----|--14-------------14-------14-------|
--15b----15b------15b--15b----15b----------|--17b------------17b------17b------|
-------------------------------------------|-----------------------------------|
-------------------------------------------|-----------------------------------|
-------------------------------------------|-----------------------------------|
-------------------------------------------|-----------------------------------|


   Q      Q      Q     Q.       Q.          Q.       E.    E.    H.             
--15-----15-----15----17-------17-------|--19-------19----19----19-------------|
--18b----18b----------20b------20b------|--22b------22b---22b---22b------------|
----------------------------------------|--------------------------------------|
----------------------------------------|--------------------------------------|
----------------------------------------|--------------------------------------|
----------------------------------------|--------------------------------------|


   tr          tr          tr                   
   Q.          Q.          Q.          Q.       
--15(12)---------------------------------------|
--------------15(12)---------------------------|
--------------------------14(12)---------------|
--------------------------------------14~------|
-----------------------------------------------|
-----------------------------------------------|


   tr          tr          tr                   
   Q.          Q.          Q.          Q.       
--15(12)---------------------------------------|
--------------15(12)---------------------------|
--------------------------14(12)---------------|
--------------------------------------14~------|
-----------------------------------------------|
-----------------------------------------------|


   tr          tr          tr          tr          
   Q.          Q.          Q.          Q.          
--15(12)------------------15(12)------------------|
--------------15(12)------------------15(12)------|
--------------------------------------------------|
--------------------------------------------------|
--------------------------------------------------|
--------------------------------------------------|


   E   E   E   E   E   E   Q.       Q     S S  
--12--14--14--14--15--17--17b------17b----L---|
----------------------------------------------|
----------------------------------------------|
--------------------------------------------5-|
----------------------------------------------|
----------------------------------------------|


  Riff C                                            
  E      S E  S S S  S  E  E.  S E  S S S  S  E  S  
---------------------------------------------------|
---------------------------------------------------|
-----------4--4-4----------------4--4-4------------|
--L------5--------7p-5p-4--5---5--------7p-5p-4--5-|
---------------------------------------------------|
---------------------------------------------------|


  E  S E  S S S  S  E  E.  S E  S S S  S  E  S  
-----------------------------------------------|
-----------------------------------------------|
-------4--4-4----------------4--4-4------------|
--L--5--------7p-5p-4--5---5--------7p-5p-4--5-|
-----------------------------------------------|
-----------------------------------------------|


  E  S E  S S S  S  E  E.  S E  S S S  S  E  S  
-----------------------------------------------|
-----------------------------------------------|
-------4--4-4----------------4--4-4------------|
--L--5--------7p-5p-4--5---5--------7p-5p-4--5-|
-----------------------------------------------|
-----------------------------------------------|


  E  S E  S S S  S  E  E.  S E  S S S  S  E  S  
-----------------------------------------------|
-----------------------------------------------|
-------4--4-4----------------4--4-4------------|
--L--5--------7p-5p-4--5---5--------7p-5p-4--5-|
-----------------------------------------------|
-----------------------------------------------|


  Break                                            
  E     S E  S S S  S  E  E.  S E  S S S  S  E  S  
--------------------------------------------------|
--------------------------------------------------|
----------4--4-4----------------4--4-4------------|
--L-----5--------7p-5p-4--5---5--------7p-5p-4--5-|
--------------------------------------------------|
--------------------------------------------------|


  E  S E  S S S  S  E  E.  S E  S S S  S  E  S  
-----------------------------------------------|
-----------------------------------------------|
-------4--4-4----------------4--4-4------------|
--L--5--------7p-5p-4--5---5--------7p-5p-4--5-|
-----------------------------------------------|
-----------------------------------------------|


  E  S E  S S S  S  E  E.  S E  S S S  S  E  S  
-----------------------------------------------|
-----------------------------------------------|
-------4--4-4----------------4--4-4------------|
--L--5--------7p-5p-4--5---5--------7p-5p-4--5-|
-----------------------------------------------|
-----------------------------------------------|


  E  S E  S S S  S  E  E.  S E  S S S  S  E  S  
-----------------------------------------------|
---------------------------------------------5-|
-------4--4-4----------------4--4-4------------|
--L--5--------7p-5p-4--5---5--------7p-5p-4----|
-----------------------------------------------|
-----------------------------------------------|


  Riff D                                            
  E      S E  S S  S  S E  E.  S E  S S  S  S E  S  
---------------------------------------------------|
--L------5-8--8-8p-7p-5----5---5-8--8-8p-7p-5----5-|
------------------------7---------------------7----|
---------------------------------------------------|
---------------------------------------------------|
---------------------------------------------------|


  E  S E  S S  S  S E  E.  S E  S S  S  S E  S  
-----------------------------------------------|
--L--5-8--8-8p-7p-5----5---5-8--8-8p-7p-5----5-|
--------------------7---------------------7----|
-----------------------------------------------|
-----------------------------------------------|
-----------------------------------------------|


  E  S E  S S  S  S E  E.  S E  S S  S  S E  S  
-----------------------------------------------|
--L--5-8--8-8p-7p-5----5---5-8--8-8p-7p-5----5-|
--------------------7---------------------7----|
-----------------------------------------------|
-----------------------------------------------|
-----------------------------------------------|


  E  S E  S S  S  S E  E.  S E  S S  S  S E  S  
-----------------------------------------------|
--L--5-8--8-8p-7p-5----5---5-8--8-8p-7p-5----5-|
--------------------7---------------------7----|
-----------------------------------------------|
-----------------------------------------------|
-----------------------------------------------|


  Solo 2 Dave Murray                                            
  E                  S E  S S  S  S E  E.  S E  S S  S  S E  S  
---------------------------------------------------------------|
--L------------------5-8--8-8p-7p-5----5---5-8--8-8p-7p-5----5-|
------------------------------------7---------------------7----|
---------------------------------------------------------------|
---------------------------------------------------------------|
---------------------------------------------------------------|


  E  S E  S S  S  S E  E.  S E  S S  S  S E  S  
-----------------------------------------------|
--L--5-8--8-8p-7p-5----5---5-8--8-8p-7p-5----5-|
--------------------7---------------------7----|
-----------------------------------------------|
-----------------------------------------------|
-----------------------------------------------|


  E  S E  S S  S  S E  E.  S E  S S  S  S E  S  
-----------------------------------------------|
--L--5-8--8-8p-7p-5----5---5-8--8-8p-7p-5----5-|
--------------------7---------------------7----|
-----------------------------------------------|
-----------------------------------------------|
-----------------------------------------------|


  E  S E  S S  S  S E  E.  S E  S S  S  S E  S  
-----------------------------------------------|
--L--5-8--8-8p-7p-5----5---5-8--8-8p-7p-5----5-|
--------------------7---------------------7----|
-----------------------------------------------|
-----------------------------------------------|
-----------------------------------------------|


  E  S E  S S  S  S E  E.  S E  S S  S  S E  S  
-----------------------------------------------|
--L--5-8--8-8p-7p-5----5---5-8--8-8p-7p-5----5-|
--------------------7---------------------7----|
-----------------------------------------------|
-----------------------------------------------|
-----------------------------------------------|


  E  S E  S S  S  S E  E.  S E  S S  S  S E  S  
-----------------------------------------------|
--L--5-8--8-8p-7p-5----5---5-8--8-8p-7p-5----5-|
--------------------7---------------------7----|
-----------------------------------------------|
-----------------------------------------------|
-----------------------------------------------|


  E  S E  S S  S  S E  E.  S E  S S  S  S E  S  
-----------------------------------------------|
--L--5-8--8-8p-7p-5----5---5-8--8-8p-7p-5----5-|
--------------------7---------------------7----|
-----------------------------------------------|
-----------------------------------------------|
-----------------------------------------------|


  E  S E  S S  S  S E  E.  S E  S S  S  S E  S  
-----------------------------------------------|
--L--5-8--8-8p-7p-5----5---5-8--8-8p-7p-5----5-|
--------------------7---------------------7----|
-----------------------------------------------|
-----------------------------------------------|
-----------------------------------------------|


  E  S E  S S  S  S E  E.  S E  S S  S  S E  S  
-----------------------------------------------|
--L--5-8--8-8p-7p-5----5---5-8--8-8p-7p-5----5-|
--------------------7---------------------7----|
-----------------------------------------------|
-----------------------------------------------|
-----------------------------------------------|


  E  S E  S S  S  S E  E.  S E  S S  S  S E  S  
-----------------------------------------------|
--L--5-8--8-8p-7p-5----5---5-8--8-8p-7p-5----5-|
--------------------7---------------------7----|
-----------------------------------------------|
-----------------------------------------------|
-----------------------------------------------|


  E  S E  S S  S  S E  E.  S E  S S  S  S E  S  
-----------------------------------------------|
--L--5-8--8-8p-7p-5----5---5-8--8-8p-7p-5----5-|
--------------------7---------------------7----|
-----------------------------------------------|
-----------------------------------------------|
-----------------------------------------------|


  E  S E  S S  S  S E  E.  S E  S S  S  S E  S  
-----------------------------------------------|
--L--5-8--8-8p-7p-5----5---5-8--8-8p-7p-5----5-|
--------------------7---------------------7----|
-----------------------------------------------|
-----------------------------------------------|
-----------------------------------------------|


  E  S E  S S  S  S E  E.  S E  S S  S  S E  S  
-----------------------------------------------|
--L--5-8--8-8p-7p-5----5---5-8--8-8p-7p-5----5-|
--------------------7---------------------7----|
-----------------------------------------------|
-----------------------------------------------|
-----------------------------------------------|


  E  S E  S S  S  S E  E.  S E  S S  S  S E  S  
-----------------------------------------------|
--L--5-8--8-8p-7p-5----5---5-8--8-8p-7p-5----5-|
--------------------7---------------------7----|
-----------------------------------------------|
-----------------------------------------------|
-----------------------------------------------|


  E  S E  S S  S  S E  E.  S E  S S  S  S E  S  
-----------------------------------------------|
--L--5-8--8-8p-7p-5----5---5-8--8-8p-7p-5----5-|
--------------------7---------------------7----|
-----------------------------------------------|
-----------------------------------------------|
-----------------------------------------------|


  E  S E  S S  S  S E  E.  S E  S S  S  S E  S  
-----------------------------------------------|
--L--5-8--8-8p-7p-5----5---5-8--8-8p-7p-5------|
--------------------7---------------------7----|
---------------------------------------------5-|
-----------------------------------------------|
-----------------------------------------------|


  Riff C                                            
  E      S E  S S S  S  E  E.  S E  S S S  S  E  S  
---------------------------------------------------|
---------------------------------------------------|
-----------4--4-4----------------4--4-4------------|
--L------5--------7p-5p-4--5---5--------7p-5p-4--5-|
---------------------------------------------------|
---------------------------------------------------|


  E  S E  S S S  S  E  E.  S E  S S S  S  E  S  
-----------------------------------------------|
-----------------------------------------------|
-------4--4-4----------------4--4-4------------|
--L--5--------7p-5p-4--5---5--------7p-5p-4--5-|
-----------------------------------------------|
-----------------------------------------------|


  E  S E  S S S  S  E  E.  S E  S S S  S  E  S  
-----------------------------------------------|
-----------------------------------------------|
-------4--4-4----------------4--4-4------------|
--L--5--------7p-5p-4--5---5--------7p-5p-4--5-|
-----------------------------------------------|
-----------------------------------------------|


  E  S E  S S S  S  E  E.  S E  S S S  S  E  S  
-----------------------------------------------|
---------------------------------------------5-|
-------4--4-4----------------4--4-4------------|
--L--5--------7p-5p-4--5---5--------7p-5p-4----|
-----------------------------------------------|
-----------------------------------------------|


  Riff D                                            
  E      S E  S S  S  S E  E.  S E  S S  S  S E  S  
---------------------------------------------------|
--L------5-8--8-8p-7p-5----5---5-8--8-8p-7p-5----5-|
------------------------7---------------------7----|
---------------------------------------------------|
---------------------------------------------------|
---------------------------------------------------|


  E  S E  S S  S  S E  E.  S E  S S  S  S E  S  
-----------------------------------------------|
--L--5-8--8-8p-7p-5----5---5-8--8-8p-7p-5----5-|
--------------------7---------------------7----|
-----------------------------------------------|
-----------------------------------------------|
-----------------------------------------------|


  E  S E  S S S  S E  E.  S E  S S S  S E.     W.                
--------------------------------------------|-------------------|
--L--8-8--8-8-7p-5----5---5-8--8-8-7p-5-----|-------------------|
-------------------7--------------------7---|--9----------------|
--------------------------------------------|--9----------------|
--------------------------------------------|--7----------------|
--------------------------------------------|-------------------|


  W.                  W.                  W.                
-------------------|-------------------|-------------------|
-------------------|-------------------|-------------------|
--L----------------|--L----------------|--L----------------|
--L----------------|--L----------------|--L----------------|
--L----------------|--L----------------|--L----------------|
-------------------|-------------------|-------------------|


    Outro                                                             
    Q.      Q.      Q.      Q.        Q.     H          H         E   
-----------------------------------|---------------------------------|
--/12------10----------------------|---------------------------------|
-------------------12------11------|--9------7--------/12---------L--|
-----------------------------------|---------------------------------|
-----------------------------------|---------------------------------|
-----------------------------------|---------------------------------|


  W.                  W.                  E.  E.  E.  E.  E.  E.  E.  E.   
-------------------|-------------------|----------------------------------|
-------------------|-------------------|------------------5---------------|
--9----------------|--L----------------|--------------4-------4-----------|
--9----------------|--L----------------|------4---5---------------5---4---|
--7----------------|--L----------------|--7-------------------------------|
-------------------|-------------------|----------------------------------|


  E.  E.  E.  E.  E.  E.  E.  E.     E.  E.  E.  E.  E.  E.  E.  E.   
----------------------------------|----------------------------------|
------------------5---------------|------------------5---------------|
--------------4-------4-----------|--------------4-------4-----------|
------4---5---------------5---4---|------4---5---------------5---4---|
--7-------------------------------|--7-------------------------------|
----------------------------------|----------------------------------|


  E.  E.  E.  E.  E.  E.  E.  E.     T T Q    E.  E  S S H.            
----------------------------------|-----------------------------------|
------------------5---------------|-----------------------------------|
--------------4-------4-----------|--9-------------------9------------|
------4---5---------------5---4---|----9---------------9--------------|
--7-------------------------------|------7----L---L--7----------------|
----------------------------------|-----------------------------------|


  W.                 
-------------------||
-------------------||
--L----------------||
-------------------||
-------------------||
-------------------||




Guitar #3:
                                 
Janick Gers

            Intro                                                               
     S      E     W                E.  E.   4x   E  W                E.  E.   3x
E||----||-----------------------------------||--------------------------------||
B||----||-----------------------------------||--------------------------------||
G||----||*-----------------------------5---*||*--------------------------7---*||
D||----||*--7----------------------5---3---*||*--9-------------------7---5---*||
A||----||---5----------------------3--------||---7-------------------5--------||
E||----||-----------------------------------||--------------------------------||


                                   Riff A                                     
  E  W                E.  E.       E      S S E  E  E  E  E  S S E  E  E  E   
------------------------------||---------------------------------------------|
------------------------------||---------------------------------------------|
------------------------------||*--------------------------------------------|
--9-------------------5---7---||*--2------2-2-2--2--5--4--2--2-2-2--2--5--4--|
--7-------------------3---5---||---------------------------------------------|
------------------------------||---------------------------------------------|


  E  S S E  E  E  E  E  S S E  E  E  E   
----------------------------------------|
----------------------------------------|
----------------------------------------|
---------------------2--2-2-2--2--5--4--|
--5--5-5-5--5--2--5---------------------|
----------------------------------------|


  E  S S E  E  E  E  E  S S E  E  E  E   
----------------------------------------|
----------------------------------------|
----------------------------------------|
--2--2-2-2--2--5--4--2--2-2-2--2--5--4--|
----------------------------------------|
----------------------------------------|


  E  S S E  E  E  E  E  S S E  E  E  E   
----------------------------------------|
----------------------------------------|
----------------------------------------|
---------------------2--2-2-2--2--------|
--5--5-5-5--5--2--5---------------5--4--|
----------------------------------------|


  E  S S E  E  E  E  E  S S E  E  E  E   
----------------------------------------|
----------------------------------------|
----------------------------------------|
----------------------------------------|
--2--2-2-2--2--5--4--2--2-2-2--2--5--4--|
----------------------------------------|


  E  S S E  E  E  E  E  S S E  E  E  E   
----------------------------------------|
----------------------------------------|
----------------------------------------|
----------------------------------------|
---------------------2--2-2-2--2--5--4--|
--5--5-5-5--5--2--5---------------------|


  E  S S E  E  E  E  E  S S E  E  E  E   
----------------------------------------|
----------------------------------------|
----------------------------------------|
----------------------------------------|
--2--2-2-2--2--5--4--2--2-2-2--2--5--4--|
----------------------------------------|


  E  S S E  E  E  E  E  S S E  E  E  E     
-----------------------------------------||
-----------------------------------------||
----------------------------------------*||
----------------------------------5--4--*||
---------------------2--2-2-2--2---------||
--5--5-5-5--5--2--5----------------------||


  E  S S E  E  E  E  E  S S E  E  E  E   
----------------------------------------|
----------------------------------------|
----------------------------------------|
----------------------------------------|
---------------------2--2-2-2--2--L-----|
--5--5-5-5--5--2--5---------------------|


    Riff B                              
    Q      E  Q    E  E  E  E  Q    E   
|--------------------------------------|
|--------------------------------------|
|*--4----------------------------------|
|*------------7-------5--5--5--5-------|
|--------------------------------------|
|--------------------------------------|


  E  E  E  E  E  E  E  E  E  Q     E   3x  Q    E  Q    E  E  E  E  Q    E   
---------------------------------------||-----------------------------------|
---------------------------------------||-----------------------------------|
--------------------------------------*||--4--------------------------------|
--5--4-----7--5--4--5--4--------------*||----------7-------5--5--5--5-------|
--------7-----------------7--7~--------||-----------------------------------|
---------------------------------------||-----------------------------------|


                       Riff A                                     
  E  E  E  E  E  E     E      S S E  E  E  E  E  S S E  E  E  E   
--------------------|--------------------------------------------|
--------------------|--------------------------------------------|
--------------------|--------------------------------------------|
--5--4-----7--5--4--|--2------2-2-2--2--5--4--2--2-2-2--2--5--4--|
--------7-----------|--------------------------------------------|
--------------------|--------------------------------------------|


  E  S S E  E  E  E  E  S S E  E  E  E   
----------------------------------------|
----------------------------------------|
----------------------------------------|
---------------------2--2-2-2--2--5--4--|
--5--5-5-5--5--2--5---------------------|
----------------------------------------|


  E  S S E  E  E  E  E  S S E  E  E  E   
----------------------------------------|
----------------------------------------|
----------------------------------------|
--2--2-2-2--2--5--4--2--2-2-2--2--5--4--|
----------------------------------------|
----------------------------------------|


  E  S S E  E  E  E  E  S S E  E  E  E   
----------------------------------------|
----------------------------------------|
----------------------------------------|
---------------------2--2-2-2--2--------|
--5--5-5-5--5--2--5---------------5--4--|
----------------------------------------|


  E  S S E  E  E  E  E  S S E  E  E  E   
----------------------------------------|
----------------------------------------|
----------------------------------------|
----------------------------------------|
--2--2-2-2--2--5--4--2--2-2-2--2--5--4--|
----------------------------------------|


  E  S S E  E  E  E  E  S S E  E  E  E   
----------------------------------------|
----------------------------------------|
----------------------------------------|
----------------------------------------|
---------------------2--2-2-2--2--5--4--|
--5--5-5-5--5--2--5---------------------|


  E  S S E  E  E  E  E  S S E  E  E  E   
----------------------------------------|
----------------------------------------|
----------------------------------------|
----------------------------------------|
--2--2-2-2--2--5--4--2--2-2-2--2--5--4--|
----------------------------------------|


  E  S S E  E  E  E  E  S S E  E  E  E   
----------------------------------------|
----------------------------------------|
----------------------------------------|
----------------------------------------|
---------------------2--2-2-2--2--L-----|
--5--5-5-5--5--2--5---------------------|


    Riff B                              
    Q      E  Q    E  E  E  E  Q    E   
|--------------------------------------|
|--------------------------------------|
|*--4----------------------------------|
|*------------7-------5--5--5--5-------|
|--------------------------------------|
|--------------------------------------|


  E  E  E  E  E  E  E  E  E  Q     E   3x  Q    E  Q    E  E  E  E  Q    E   
---------------------------------------||-----------------------------------|
---------------------------------------||-----------------------------------|
--------------------------------------*||--4--------------------------------|
--5--4-----7--5--4--5--4--------------*||----------7-------5--5--5--5-------|
--------7-----------------7--7~--------||-----------------------------------|
---------------------------------------||-----------------------------------|


                         Break                             
  E  E  E  E  E  E       E     W                E.  E.   3x
--------------------||-----------------------------------||
--------------------||-----------------------------------||
--------------------||*-----------------------------7---*||
--5--4-----7--5--4--||*--9----------------------7---5---*||
--------7-----------||---7----------------------5--------||
--------------------||-----------------------------------||


  E  W                E.  E.   
------------------------------|
------------------------------|
------------------------------|
--9-------------------5---7---|
--7-------------------3---5---|
------------------------------|


  Riff C                                            
  E      S E  S S  S  S E  E.  S E  S S  S  S E  S  
---------------------------------------------------|
---------------------------------------------------|
---------------------------------------------------|
--2------2-5--5-5p-4p-2----2---2-5--5-5p-4p-2----2-|
------------------------5---------------------5----|
---------------------------------------------------|


  E  S E  S S  S  S E  E.  S E  S S  S  S E  S  
-----------------------------------------------|
-----------------------------------------------|
-----------------------------------------------|
--L--2-5--5-5p-4p-2----2---2-5--5-5p-4p-2----2-|
--------------------5---------------------5----|
-----------------------------------------------|


  E  S E  S S  S  S E  E.  S E  S S  S  S E  S  
-----------------------------------------------|
-----------------------------------------------|
-----------------------------------------------|
--L--2-5--5-5p-4p-2----2---2-5--5-5p-4p-2----2-|
--------------------5---------------------5----|
-----------------------------------------------|


  Solo 1 Adrian Smith                                            
  E                   S E  S S  S  S E  E.  S E  S S  S  S E  S  
----------------------------------------------------------------|
----------------------------------------------------------------|
----------------------------------------------------------------|
--L-------------------2-5--5-5p-4p-2----2---2-5--5-5p-4p-2----2-|
-------------------------------------5---------------------5----|
----------------------------------------------------------------|


  E  S E  S S  S  S E  E.  S E  S S  S  S E  S  
-----------------------------------------------|
-----------------------------------------------|
-----------------------------------------------|
--L--2-5--5-5p-4p-2----2---2-5--5-5p-4p-2----2-|
--------------------5---------------------5----|
-----------------------------------------------|


  E  S E  S S  S  S E  E.  S E  S S  S  S E  S  
-----------------------------------------------|
-----------------------------------------------|
-----------------------------------------------|
--L--2-5--5-5p-4p-2----2---2-5--5-5p-4p-2----2-|
--------------------5---------------------5----|
-----------------------------------------------|


  E  S E  S S  S  S E  E.  S E  S S  S  S E  S  
-----------------------------------------------|
-----------------------------------------------|
-----------------------------------------------|
--L--2-5--5-5p-4p-2----2---2-5--5-5p-4p-2----2-|
--------------------5---------------------5----|
-----------------------------------------------|


  E  S E  S S  S  S E  E.  S E  S S  S  S E  S  
-----------------------------------------------|
-----------------------------------------------|
-----------------------------------------------|
--L--2-5--5-5p-4p-2----2---2-5--5-5p-4p-2----2-|
--------------------5---------------------5----|
-----------------------------------------------|


  E  S E  S S  S  S E  E.  S E  S S  S  S E  S  
-----------------------------------------------|
-----------------------------------------------|
-----------------------------------------------|
--L--2-5--5-5p-4p-2----2---2-5--5-5p-4p-2----2-|
--------------------5---------------------5----|
-----------------------------------------------|


  E  S E  S S  S  S E  E.  S E  S S  S  S E  S  
-----------------------------------------------|
-----------------------------------------------|
-----------------------------------------------|
--L--2-5--5-5p-4p-2----2---2-5--5-5p-4p-2----2-|
--------------------5---------------------5----|
-----------------------------------------------|


  E  S E  S S  S  S E  E.  S E  S S  S  S E  S  
-----------------------------------------------|
-----------------------------------------------|
-----------------------------------------------|
--L--2-5--5-5p-4p-2----2---2-5--5-5p-4p-2----2-|
--------------------5---------------------5----|
-----------------------------------------------|


  E  S E  S S  S  S E  E.  S E  S S  S  S E  S  
-----------------------------------------------|
-----------------------------------------------|
-----------------------------------------------|
--L--2-5--5-5p-4p-2----2---2-5--5-5p-4p-2----2-|
--------------------5---------------------5----|
-----------------------------------------------|


  E  S E  S S  S  S E  E.  S E  S S  S  S E  S  
-----------------------------------------------|
-----------------------------------------------|
-----------------------------------------------|
--L--2-5--5-5p-4p-2----2---2-5--5-5p-4p-2----2-|
--------------------5---------------------5----|
-----------------------------------------------|


  E  S E  S S  S  S E  E.  S E  S S  S  S E  S  
-----------------------------------------------|
-----------------------------------------------|
-----------------------------------------------|
--L--2-5--5-5p-4p-2----2---2-5--5-5p-4p-2----2-|
--------------------5---------------------5----|
-----------------------------------------------|


  E  S E  S S  S  S E  E.  S E  S S  S  S E  S  
-----------------------------------------------|
-----------------------------------------------|
-----------------------------------------------|
--L--2-5--5-5p-4p-2----2---2-5--5-5p-4p-2----2-|
--------------------5---------------------5----|
-----------------------------------------------|


  E  S E  S S  S  S E  E.  S E  S S  S  S E  S  
-----------------------------------------------|
-----------------------------------------------|
-----------------------------------------------|
--L--2-5--5-5p-4p-2----2---2-5--5-5p-4p-2----2-|
--------------------5---------------------5----|
-----------------------------------------------|


  Riff C                                            
  E      S E  S S  S  S E  E.  S E  S S  S  S E  S  
---------------------------------------------------|
---------------------------------------------------|
---------------------------------------------------|
--L------2-5--5-5p-4p-2----2---2-5--5-5p-4p-2----2-|
------------------------5---------------------5----|
---------------------------------------------------|


  E  S E  S S  S  S E  E.  S E  S S  S  S E  S  
-----------------------------------------------|
-----------------------------------------------|
-----------------------------------------------|
--L--2-5--5-5p-4p-2----2---2-5--5-5p-4p-2----2-|
--------------------5---------------------5----|
-----------------------------------------------|


  E  S E  S S  S  S E  E.  S E  S S  S  S E  S  
-----------------------------------------------|
-----------------------------------------------|
-----------------------------------------------|
--L--2-5--5-5p-4p-2----2---2-5--5-5p-4p-2----2-|
--------------------5---------------------5----|
-----------------------------------------------|


  E  S E  S S  S  S E  E.  S E  S S  S  S E  S  
-----------------------------------------------|
-----------------------------------------------|
-----------------------------------------------|
--L--2-5--5-5p-4p-2----2---2-5--5-5p-4p-2----2-|
--------------------5---------------------5----|
-----------------------------------------------|


  Break                                            
  E     S E  S S  S  S E  E.  S E  S S  S  S E  S  
--------------------------------------------------|
--------------------------------------------------|
--------------------------------------------------|
--L-----2-5--5-5p-4p-2----2---2-5--5-5p-4p-2----2-|
-----------------------5---------------------5----|
--------------------------------------------------|


  E  S E  S S  S  S E  E.  S E  S S  S  S E  S  
-----------------------------------------------|
-----------------------------------------------|
-----------------------------------------------|
--L--2-5--5-5p-4p-2----2---2-5--5-5p-4p-2----2-|
--------------------5---------------------5----|
-----------------------------------------------|


  E  S E  S S  S  S E  E.  S E  S S  S  S E  S  
-----------------------------------------------|
-----------------------------------------------|
-----------------------------------------------|
--L--2-5--5-5p-4p-2----2---2-5--5-5p-4p-2----2-|
--------------------5---------------------5----|
-----------------------------------------------|


  E  S E  S S  S  S E  E.  S E  S S  S  S E  S  
-----------------------------------------------|
-----------------------------------------------|
-----------------------------------------------|
--L--2-5--5-5p-4p-2----2---2-5--5-5p-4p-2----2-|
--------------------5---------------------5----|
-----------------------------------------------|


  Riff D                                            
  E      S E  S S  S  S E  E.  S E  S S  S  S E  S  
---------------------------------------------------|
---------------------------------------------------|
---------------------------------------------------|
--L------2-5--5-5p-4p-2----2---2-5--5-5p-4p-2----2-|
------------------------5---------------------5----|
---------------------------------------------------|


  E  S E  S S  S  S E  E.  S E  S S  S  S E  S  
-----------------------------------------------|
-----------------------------------------------|
-----------------------------------------------|
--L--2-5--5-5p-4p-2----2---2-5--5-5p-4p-2----2-|
--------------------5---------------------5----|
-----------------------------------------------|


  E  S E  S S  S  S E  E.  S E  S S  S  S E  S  
-----------------------------------------------|
-----------------------------------------------|
-----------------------------------------------|
--L--2-5--5-5p-4p-2----2---2-5--5-5p-4p-2----2-|
--------------------5---------------------5----|
-----------------------------------------------|


  E  S E  S S  S  S E  E.  S E  S S  S  S E  S  
-----------------------------------------------|
-----------------------------------------------|
-----------------------------------------------|
--L--2-5--5-5p-4p-2----2---2-5--5-5p-4p-2----2-|
--------------------5---------------------5----|
-----------------------------------------------|


  Solo 2 Dave Murray                                            
  E                  S E  S S  S  S E  E.  S E  S S  S  S E  S  
---------------------------------------------------------------|
---------------------------------------------------------------|
---------------------------------------------------------------|
--L------------------2-5--5-5p-4p-2----2---2-5--5-5p-4p-2----2-|
------------------------------------5---------------------5----|
---------------------------------------------------------------|


  E  S E  S S  S  S E  E.  S E  S S  S  S E  S  
-----------------------------------------------|
-----------------------------------------------|
-----------------------------------------------|
--L--2-5--5-5p-4p-2----2---2-5--5-5p-4p-2----2-|
--------------------5---------------------5----|
-----------------------------------------------|


  E  S E  S S  S  S E  E.  S E  S S  S  S E  S  
-----------------------------------------------|
-----------------------------------------------|
-----------------------------------------------|
--L--2-5--5-5p-4p-2----2---2-5--5-5p-4p-2----2-|
--------------------5---------------------5----|
-----------------------------------------------|


  E  S E  S S  S  S E  E.  S E  S S  S  S E  S  
-----------------------------------------------|
-----------------------------------------------|
-----------------------------------------------|
--L--2-5--5-5p-4p-2----2---2-5--5-5p-4p-2----2-|
--------------------5---------------------5----|
-----------------------------------------------|


  E  S E  S S  S  S E  E.  S E  S S  S  S E  S  
-----------------------------------------------|
-----------------------------------------------|
-----------------------------------------------|
--L--2-5--5-5p-4p-2----2---2-5--5-5p-4p-2----2-|
--------------------5---------------------5----|
-----------------------------------------------|


  E  S E  S S  S  S E  E.  S E  S S  S  S E  S  
-----------------------------------------------|
-----------------------------------------------|
-----------------------------------------------|
--L--2-5--5-5p-4p-2----2---2-5--5-5p-4p-2----2-|
--------------------5---------------------5----|
-----------------------------------------------|


  E  S E  S S  S  S E  E.  S E  S S  S  S E  S  
-----------------------------------------------|
-----------------------------------------------|
-----------------------------------------------|
--L--2-5--5-5p-4p-2----2---2-5--5-5p-4p-2----2-|
--------------------5---------------------5----|
-----------------------------------------------|


  E  S E  S S  S  S E  E.  S E  S S  S  S E  S  
-----------------------------------------------|
-----------------------------------------------|
-----------------------------------------------|
--L--2-5--5-5p-4p-2----2---2-5--5-5p-4p-2----2-|
--------------------5---------------------5----|
-----------------------------------------------|


  E  S E  S S  S  S E  E.  S E  S S  S  S E  S  
-----------------------------------------------|
-----------------------------------------------|
-----------------------------------------------|
--L--2-5--5-5p-4p-2----2---2-5--5-5p-4p-2----2-|
--------------------5---------------------5----|
-----------------------------------------------|


  E  S E  S S  S  S E  E.  S E  S S  S  S E  S  
-----------------------------------------------|
-----------------------------------------------|
-----------------------------------------------|
--L--2-5--5-5p-4p-2----2---2-5--5-5p-4p-2----2-|
--------------------5---------------------5----|
-----------------------------------------------|


  E  S E  S S  S  S E  E.  S E  S S  S  S E.   
----------------------------------------------|
----------------------------------------------|
----------------------------------------------|
--L--2-5--5-5p-4p-2----2---2-5--5-5p-4p-2-----|
--------------------5---------------------5---|
----------------------------------------------|


   Variación de  "A Real Live/Dead One..."                                      
   S                                      S S  S  S S S  S S S  S S S  S S S  S 
--12p-------------------------------------0-0-10p-0-0-8p-0-0-7p-0-0-5p-0-0-3p-0-
--------------------------------------------------------------------------------
--------------------------------------------------------------------------------
--------------------------------------------------------------------------------
--------------------------------------------------------------------------------
--------------------------------------------------------------------------------


  E  S E  S S  S  S E  E.  S E  S S  S  S E  S  
-----------------------------------------------|
-----------------------------------------------|
-----------------------------------------------|
--L--2-5--5-5p-4p-2----2---2-5--5-5p-4p-2----2-|
--------------------5---------------------5----|
-----------------------------------------------|


  E  S E  S S  S  S E  E.  S E  S S  S  S E  S  
-----------------------------------------------|
-----------------------------------------------|
-----------------------------------------------|
--L--2-5--5-5p-4p-2----2---2-5--5-5p-4p-2----2-|
--------------------5---------------------5----|
-----------------------------------------------|


  E  S E  S S  S  S E  E.  S E  S S  S  S E  S  
-----------------------------------------------|
-----------------------------------------------|
-----------------------------------------------|
--L--2-5--5-5p-4p-2----2---2-5--5-5p-4p-2----2-|
--------------------5---------------------5----|
-----------------------------------------------|


  E  S E  S S  S  S E  E.  S E  S S  S  S E  S  
-----------------------------------------------|
-----------------------------------------------|
-----------------------------------------------|
--L--2-5--5-5p-4p-2----2---2-5--5-5p-4p-2----2-|
--------------------5---------------------5----|
-----------------------------------------------|


  Riff C                                            
  E      S E  S S  S  S E  E.  S E  S S  S  S E  S  
---------------------------------------------------|
---------------------------------------------------|
---------------------------------------------------|
--L------2-5--5-5p-4p-2----2---2-5--5-5p-4p-2----2-|
------------------------5---------------------5----|
---------------------------------------------------|


  E  S E  S S  S  S E  E.  S E  S S  S  S E  S  
-----------------------------------------------|
-----------------------------------------------|
-----------------------------------------------|
--L--2-5--5-5p-4p-2----2---2-5--5-5p-4p-2----2-|
--------------------5---------------------5----|
-----------------------------------------------|


  E  S E  S S  S  S E  E.  S E  S S  S  S E.   
----------------------------------------------|
----------------------------------------------|
----------------------------------------------|
--L--2-5--5-5p-4p-2----2---2-5--5-5p-4p-2-----|
--------------------5---------------------5---|
----------------------------------------------|


   Variación de "A Real Live/Dead One..."                                       
   S                                     S S  S  S S S  S S S  S S S  S S S  S S
--12p------------------------------------0-0-10p-0-0-8p-0-0-7p-0-0-5p-0-0-3p-0-0
--------------------------------------------------------------------------------
--------------------------------------------------------------------------------
--------------------------------------------------------------------------------
--------------------------------------------------------------------------------
--------------------------------------------------------------------------------


  Riff D                                            
  E      S E  S S  S  S E  E.  S E  S S  S  S E  S  
---------------------------------------------------|
---------------------------------------------------|
---------------------------------------------------|
--L------2-5--5-5p-4p-2----2---2-5--5-5p-4p-2----2-|
------------------------5---------------------5----|
---------------------------------------------------|


  E  S E  S S  S  S E  E.  S E  S S  S  S E  S  
-----------------------------------------------|
-----------------------------------------------|
-----------------------------------------------|
--L--2-5--5-5p-4p-2----2---2-5--5-5p-4p-2----2-|
--------------------5---------------------5----|
-----------------------------------------------|


  E  S E  S S  S  S E  E.  S E  S S  S  S E.     W.                
----------------------------------------------|-------------------|
----------------------------------------------|-------------------|
----------------------------------------------|--9----------------|
--L--2-5--5-5p-4p-2----2---2-5--5-5p-4p-2-----|--9----------------|
--------------------5---------------------5---|--7----------------|
----------------------------------------------|-------------------|


  W.                  W.                  H.            H.             
-------------------|-------------------|------------------------------|
-------------------|-------------------|------------------------------|
--L----------------|--L----------------|--L------------(9)------------|
--L----------------|--L----------------|--L------------(9)------------|
--L----------------|--L----------------|--L------------(7)------------|
-------------------|-------------------|------------------------------|


   Outro                                                        
   Q.     Q.     Q.     Q.        Q.     H         H        E   
-------------------------------|-------------------------------|
-------------------------------|-------------------------------|
--/4---------------------------|-------------------------------|
----------7------5------4------|------------------/5--------L--|
-------------------------------|--7------5---------------------|
-------------------------------|-------------------------------|


  W.                  W.                  E.  E.  E.  E.  E.  E.  E.  E.   
-------------------|-------------------|------------------0---------------|
-------------------|-------------------|----------------------0-----------|
--9----------------|--L----------------|--------------0-----------0-------|
--9----------------|--L----------------|----------4-------------------4---|
--7----------------|--L----------------|------2---------------------------|
-------------------|-------------------|--0-------------------------------|


  E.  E.  E.  E.  E.  E.  E.  E.     E.  E.  E.  E.  E.  E.  E.  E.   
------------------0---------------|------------------0---------------|
----------------------0-----------|----------------------0-----------|
--------------0-----------0-------|--------------0-----------0-------|
----------4-------------------4---|----------4-------------------4---|
------2---------------------------|------2---------------------------|
--0-------------------------------|--0-------------------------------|


                                     v              NH   NH   NH            
  E.  E.  E.  E.  E.  E.  E.  E.     H        E     S    S    H.            
------------------0---------------|--0--------L------------<>12------------|
----------------------0-----------|--0--------L-------<>12-----------------|
--------------0-----------0-------|--0--------L--<>12----------------------|
----------4-------------------4---|--2--------L----------------------------|
------2---------------------------|--2--------L----------------------------|
--0-------------------------------|--0--------L----------------------------|


   W.                 
---L----------------||
--------------------||
--------------------||
--------------------||
--------------------||
--------------------||




Duration Legend
---------------
W - whole
H - half
Q - quarter
E - 8th
S - 16th
T - 32nd
X - 64th
. - note dotted
|-n-|  - n-tuplets


Tablature Legend
----------------
L - tied note
x - dead note
g - grace note
(n) - ghost note
> - accentuded note
NH - natural harmonic
AH - artificial harmonic
TH - tapped harmonic
SH - semi harmonic
PH - pitch harmonic
h - hammer on
p - pull off
b - bend
br - bendRelease
pb - preBend
pbr - preBendRelease
brb - bendReleaseBend
\n/ - tremolo bar dip
\n - tremolo bar dive
-/n - tremolo bar Release up
/n\ - tremolo bar inverted dip
/n - tremolo bar return
-\n - tremolo bar Release down
S - shift slide
s - legato slide
/ -  slide into from below or out of upwards
\ -  slide into from above or out of downwards
~ - vibrato
W - wide vibrato
tr - trill
TP - tremolo picking
T - tapping
S - slap
P - pop
< - fade in
^ - brush up
v - brush down
Suggest correction
Creating personal tab
Creating personal tab
You can edit any tab online and save it as your Personal.

You can edit, replace or remove any tab part or add personal notes – all changes will be seen only by you.

Personal tabs can be accessed anytime from any device, even offline.
Learn more »
comments
print report bad tab
guest
You may want to rate the tab now too:
select rating
Wanna post a correction for this tab? Suggest correction