Oops, an error
Loading. Please wait.

Wasted Years bass

version 2
version 2

Whole song

2,903 views 9 this week
2 commentsread comments
1 2 3 4 5
x 16
add to favorites
×
Save as Personal and add changes to this tab that will be seen only by you. Learn more ›
×
You can save this tab as Personal to edit and correct it or add notes. All changes will be seen only by you. Learn more »
launch autoscroll
font size
0
reset
guitar tuner
backing track
0:00
0:00
edit
Autoscroll
slow
fast
+/-
esc
set tempo
stop
Author
Difficulty
                                 Wasted Years                                   


                                  Iron Maiden

Steve Harris



          Intro                                                     
     S    W                   W                   W                 
G||----|-------------------|-------------------|-------------------|
D||----|-------------------|-------------------|-------------------|
A||----|-------------------|-------------------|-------------------|
E||----|-------------------|-------------------|-------------------|


                      ^                                                         
  W                   W                   W                   W                 
-------------------|-------------------|-------------------|-------------------|
-------------------|-------------------|-------------------|-------------------|
-------------------|-------------------|-------------------|-------------------|
-------------------|--0----------------|--L----------------|--L----------------|


                      ^                                                         
  W                   W                   W                   W                 
-------------------|-------------------|-------------------|-------------------|
-------------------|-------------------|-------------------|-------------------|
-------------------|-------------------|-------------------|-------------------|
--L----------------|--0----------------|--L----------------|--L----------------|


               ^                                                        
  H.           Q           Q.     Q.      Q        E  Q.     Q    Q     
--------------------|--10g12------9------11----|---L--7------9----5----|
--------------------|--------------------------|-----------------------|
--------------------|--------------------------|-----------------------|
---------------0----|--------------------------|-----------------------|


  Q.     Q.     E  E     W                   H        Q.     E   
--7------4------5-----|-------------------|---------------------|
----------------------|-------------------|---------------------|
-------------------5--|--5----------------|--L--------L---------|
----------------------|-------------------|---------------------|


  Verse Riff                                                     
  >                                                  >   >   >   
  E          E  E  E  E  E  E  E     E  E  E  E  E   E   E   E   
----------------------------------|-----------------------------|
----------------------------------|-----------------------------|
--5s---------7--7--7--7--7--7--7--|--7--7--7--7--7--10--10--10--|
----------------------------------|-----------------------------|


   >                                          >  >  >   
   E   E  E  E  E  E  E  E     E  E  E  E  E  E  E  E   
----------------------------|--------------------------|
----------------------------|--------------------------|
--10s--5--5--5--5--5--5--5--|--5--5--5--5--5--5--5--5--|
----------------------------|--------------------------|


  >                                           >   >   >   
  E   E  E  E  E  E  E  E     E  E  E  E  E   E   E   E   
---------------------------|-----------------------------|
---------------------------|-----------------------------|
--5s--7--7--7--7--7--7--7--|--7--7--7--7--7--10--10--10--|
---------------------------|-----------------------------|


   >         >        >                        >   >   >   
   E   E  E  E  E  E  E  E     E  E  E  E  E   E   E   E   
----------------------------|-----------------------------|
----------------------------|-----------------------------|
--10s--5--5--5--5--5--5--5--|--5--5--5--5--5--10--10--10--|
----------------------------|-----------------------------|


   >         >                   >  >  >  >  >  >  >   
   E   E  E  E  E  E  Q       E  E  E  E  E  E  E  E   
---------------------------|--------------------------|
----------------------5----|--L-----------------------|
--10s--3--3--3--3--3--3----|--L--3--3--3--3--5--5--5--|
---------------------------|--------------------------|


  >                                           >   >   >   
  E   E  E  E  E  E  E  E     E  E  E  E  E   E   E   E   
---------------------------|-----------------------------|
---------------------------|-----------------------------|
--5s--7--7--7--7--7--7--7--|--7--7--7--7--7--10--10--10--|
---------------------------|-----------------------------|


   >                                           >   >   >   
   E   E  E  E  E  E  E  E     E  E  E  E  E   E   E   E   
----------------------------|-----------------------------|
----------------------------|-----------------------------|
--10s--5--5--5--5--5--5--5--|--5--5--5--5--5--10--10--10--|
----------------------------|-----------------------------|


   >         >                               >  >  >   
   E   E  E  E  E  E  Q       E  E  E  E  E  E  E  E   
---------------------------|--------------------------|
----------------------5----|--L-----------------------|
--10s--3--3--3--3--3--3----|--L--3--3--3--3--5--5--5--|
---------------------------|--------------------------|


  Verse Riff                                                     
  >                                                  >   >   >   
  E          E  E  E  E  E  E  E     E  E  E  E  E   E   E   E   
----------------------------------|-----------------------------|
----------------------------------|-----------------------------|
--5s---------7--7--7--7--7--7--7--|--7--7--7--7--7--10--10--10--|
----------------------------------|-----------------------------|


   >                                          >  >  >   
   E   E  E  E  E  E  E  E     E  E  E  E  E  E  E  E   
----------------------------|--------------------------|
----------------------------|--------------------------|
--10s--5--5--5--5--5--5--5--|--5--5--5--5--5--5--5--5--|
----------------------------|--------------------------|


  >                                           >   >   >   
  E   E  E  E  E  E  E  E     E  E  E  E  E   E   E   E   
---------------------------|-----------------------------|
---------------------------|-----------------------------|
--5s--7--7--7--7--7--7--7--|--7--7--7--7--7--10--10--10--|
---------------------------|-----------------------------|


   >         >        >                        >   >   >   
   E   E  E  E  E  E  E  E     E  E  E  E  E   E   E   E   
----------------------------|-----------------------------|
----------------------------|-----------------------------|
--10s--5--5--5--5--5--5--5--|--5--5--5--5--5--10--10--10--|
----------------------------|-----------------------------|


   >         >                   >  >  >  >  >  >  >   
   E   E  E  E  E  E  Q       E  E  E  E  E  E  E  E   
---------------------------|--------------------------|
----------------------5----|--L-----------------------|
--10s--3--3--3--3--3--3----|--L--3--3--3--3--5--5--5--|
---------------------------|--------------------------|


  >                                           >   >   >   
  E   E  E  E  E  E  E  E     E  E  E  E  E   E   E   E   
---------------------------|-----------------------------|
---------------------------|-----------------------------|
--5s--7--7--7--7--7--7--7--|--7--7--7--7--7--10--10--10--|
---------------------------|-----------------------------|


   >                                           >   >   >   
   E   E  E  E  E  E  E  E     E  E  E  E  E   E   E   E   
----------------------------|-----------------------------|
----------------------------|-----------------------------|
--10s--5--5--5--5--5--5--5--|--5--5--5--5--5--10--10--10--|
----------------------------|-----------------------------|


   >         >                                        
   E   E  E  E  E  E  Q       E  E  E  E  E  E  Q     
---------------------------|-------------------------|
----------------------5----|--L----------------------|
--10s--3--3--3--3--3--3----|--L--3--3--3--3--3--5----|
---------------------------|-------------------------|


  Chorus                                              
  >                                   >           >   
  Q      E  E  E  E  Q       E  E  E  E  E  E  E  E   
--------------------------|--------------------------|
--------------------------|--------------------------|
--------------------------|--3--3--3--0--------------|
--3------3--3--3--3--3----|--------------5--5--5--5--|


                       >              >           >   
  E  E  E  E  E  E  E  E     E  E  E  E  E  E  E  E   
--------------------------|--------------------------|
--------------------------|--------------------------|
--5--5--5--5--5--5--5--0--|--3--3--3--0--------------|
--------------------------|--------------5--5--5--5--|


  E  E  E  E  E  E  E  E     E  E  E  E  E  E  E  E   
--------------------------|--------------7-----7-----|
--------------------------|-----------7-----7-----7--|
--------------------------|--5--5--5-----------------|
--0--0--0--0--0--0--0--0--|--------------------------|


  E  E  E  E  E  E  E  E     E   E   E   E   E   E   Q      
--5--5--5--7--7--7--9--9--|--9--11--11--11--12--12--12\----|
--------------------------|--------------------------------|
--------------------------|--------------------------------|
--------------------------|--------------------------------|


  >                                 >           >                          >   
  Q    E  E  E  E  Q       E  E  E  E  E  E  E  E     E  E  E  E  E  E  E  E   
------------------------|--------------------------|--------------------------|
------------------------|--------------------------|--------------------------|
------------------------|--3--3--3--0--------------|--5--5--5--5--5--5--5--0--|
--3----3--3--3--3--3----|--------------5--5--5--5--|--------------------------|


           >           >                              
  E  E  E  E  E  E  E  E     E  E  E  E  E  E  E  E   
--------------------------|--------------------------|
--------------------------|--------------------------|
--3--3--3--0--------------|--------------------------|
--------------5--5--5--5--|--0--0--0--0--0--0--0--0--|


  E  E  E  E  E  E  E  E     E  E  E  E  E  E  E  E     E  E  E  E  E  E  Q     
--------------7-----7-----|-----5--5-----5--5-----5--|--5-----5--5-----5-------|
-----------7-----7-----7--|--------------------------|-------------------------|
--5--5--5-----------------|--3--------3--------3-----|-----3--------3-----3----|
--------------------------|--------------------------|-------------------------|


  Verse Riff                                                     
  >                                                  >   >   >   
  E          E  E  E  E  E  E  E     E  E  E  E  E   E   E   E   
----------------------------------|-----------------------------|
----------------------------------|-----------------------------|
--5s---------7--7--7--7--7--7--7--|--7--7--7--7--7--10--10--10--|
----------------------------------|-----------------------------|


   >                                          >  >  >   
   E   E  E  E  E  E  E  E     E  E  E  E  E  E  E  E   
----------------------------|--------------------------|
----------------------------|--------------------------|
--10s--5--5--5--5--5--5--5--|--5--5--5--5--5--5--5--5--|
----------------------------|--------------------------|


  >                                           >   >   >   
  E   E  E  E  E  E  E  E     E  E  E  E  E   E   E   E   
---------------------------|-----------------------------|
---------------------------|-----------------------------|
--5s--7--7--7--7--7--7--7--|--7--7--7--7--7--10--10--10--|
---------------------------|-----------------------------|


   >         >        >                        >   >   >   
   E   E  E  E  E  E  E  E     E  E  E  E  E   E   E   E   
----------------------------|-----------------------------|
----------------------------|-----------------------------|
--10s--5--5--5--5--5--5--5--|--5--5--5--5--5--10--10--10--|
----------------------------|-----------------------------|


   >         >                   >  >  >  >  >  >  >   
   E   E  E  E  E  E  Q       E  E  E  E  E  E  E  E   
---------------------------|--------------------------|
----------------------5----|--L-----------------------|
--10s--3--3--3--3--3--3----|--L--3--3--3--3--5--5--5--|
---------------------------|--------------------------|


  >                                           >   >   >   
  E   E  E  E  E  E  E  E     E  E  E  E  E   E   E   E   
---------------------------|-----------------------------|
---------------------------|-----------------------------|
--5s--7--7--7--7--7--7--7--|--7--7--7--7--7--10--10--10--|
---------------------------|-----------------------------|


   >                                           >   >   >   
   E   E  E  E  E  E  E  E     E  E  E  E  E   E   E   E   
----------------------------|-----------------------------|
----------------------------|-----------------------------|
--10s--5--5--5--5--5--5--5--|--5--5--5--5--5--10--10--10--|
----------------------------|-----------------------------|


   >         >                                        
   E   E  E  E  E  E  Q       E  E  E  E  E  E  Q     
---------------------------|-------------------------|
----------------------5----|--L----------------------|
--10s--3--3--3--3--3--3----|--L--3--3--3--3--3--5----|
---------------------------|-------------------------|


  Chorus                                              
  >                                   >           >   
  Q      E  E  E  E  Q       E  E  E  E  E  E  E  E   
--------------------------|--------------------------|
--------------------------|--------------------------|
--------------------------|--3--3--3--0--------------|
--3------3--3--3--3--3----|--------------5--5--5--5--|


                       >              >           >   
  E  E  E  E  E  E  E  E     E  E  E  E  E  E  E  E   
--------------------------|--------------------------|
--------------------------|--------------------------|
--5--5--5--5--5--5--5--0--|--3--3--3--0--------------|
--------------------------|--------------5--5--5--5--|


  E  E  E  E  E  E  E  E     E  E  E  E  E  E  E  E   
--------------------------|--------------7-----7-----|
--------------------------|-----------7-----7-----7--|
--------------------------|--5--5--5-----------------|
--0--0--0--0--0--0--0--0--|--------------------------|


  E  E  E  E  E  E  E  E     E   E   E   E   E   E   Q      
--5--5--5--7--7--7--9--9--|--9--11--11--11--12--12--12\----|
--------------------------|--------------------------------|
--------------------------|--------------------------------|
--------------------------|--------------------------------|


  >                                 >           >                          >   
  Q    E  E  E  E  Q       E  E  E  E  E  E  E  E     E  E  E  E  E  E  E  E   
------------------------|--------------------------|--------------------------|
------------------------|--------------------------|--------------------------|
------------------------|--3--3--3--0--------------|--5--5--5--5--5--5--5--0--|
--3----3--3--3--3--3----|--------------5--5--5--5--|--------------------------|


           >           >                              
  E  E  E  E  E  E  E  E     E  E  E  E  E  E  E  E   
--------------------------|--------------------------|
--------------------------|--------------------------|
--3--3--3--0--------------|--------------------------|
--------------5--5--5--5--|--0--0--0--0--0--0--0--0--|


  E  E  E  E  E  E  E  E     E  E  E  E  E  E  E  E     E  E  E  E  E  E  Q     
--------------7-----7-----|-----5--5-----5--5-----5--|--5-----5--5-----5-------|
-----------7-----7-----7--|--------------------------|-------------------------|
--5--5--5-----------------|--3--------3--------3-----|-----3--------3-----3----|
--------------------------|--------------------------|-------------------------|


  Riff A                                                    
  ^                                                         
  W                   W                   W                 
-------------------|-------------------|-------------------|
-------------------|-------------------|-------------------|
-------------------|-------------------|-------------------|
--0----------------|--L----------------|--L----------------|


               ^                                                        
  H.           Q           Q.     Q.      Q        E  Q.     Q    Q     
--------------------|--10g12------9------11----|---L--7------9----5----|
--------------------|--------------------------|-----------------------|
--------------------|--------------------------|-----------------------|
--L------------0----|--------------------------|-----------------------|


  Q.     Q.     Q       E  Q.     Q    Q       W                 
--7------4------5----|--L--2------4----0----|-------------------|
---------------------|----------------------|-------------------|
---------------------|----------------------|--5----------------|
---------------------|----------------------|-------------------|


  W                   H        E  E  E  E     E  E  E  E  E  E  E  E   
-------------------|-----------------------|--------------------------|
-------------------|--5--------------------|--------------------------|
--L----------------|--3--------3--3--3--3--|--3--3--3--3--5--5--5--5--|
-------------------|-----------------------|--------------------------|


  Riff B                                                  
  >                                                       
  E      E  E  E  E  E  E  E     E  E  E  E  E  E  E  E   
------------------------------|--------------------------|
------------------------------|--------------------------|
--5------7--7--7--7--7--7--7--|--7--7--7--7--7--7--7--7--|
------------------------------|--------------------------|


  >                                                   
  E  E  E  E  E  E  E  E     E  E  E  E  E  E  Q      
--7--9--9--9--9--9--9--9--|--9--9--9--9--9--9--9\----|
--------------------------|--------------------------|
--------------------------|--------------------------|
--------------------------|--------------------------|


  E  E  E  E  E  E  E  E     E  E  E  E  E  E  Q      
--------------------------|--------------------------|
--------------------------|--------------5--5--7\----|
--5--5--5--5--5--5--5--5--|--5--5--5--5--------------|
--------------------------|--------------------------|


  >        >        >           >        >  >  >  >   
  E  E  E  E  E  E  E  E     E  E  E  E  E  E  E  E   
--------------------------|--------------------------|
--------------------------|--------------------------|
--3--3--3--3--3--3--3--3--|--3--3--3--3--3--3--5--5--|
--------------------------|--------------------------|


  >                                                   
  E  E  E  E  E  E  E  E     E  E  E  E  E  E  E  E   
--------------------------|--------------------------|
--------------------------|--------------------------|
--5--7--7--7--7--7--7--7--|--7--7--7--7--7--7--7--7--|
--------------------------|--------------------------|


   E   E   E   E   E   E   E   E      E   E   E   E   E   E   Q      
----------14--------------14------|---------------------------------|
--12--14------14--12--14------14--|--12--14--12------12--14--12\----|
----------------------------------|--------------14-----------------|
----------------------------------|---------------------------------|


  E  E  E  E  E  E  E  E     E  E  E  E  E  E  Q      
--------------------------|--------------------7\----|
--------------------------|--------------5--7--------|
--5--5--5--5--5--5--5--5--|--5--5--5--5--------------|
--------------------------|--------------------------|


  >        >        >           >        >  >  >  >   
  E  E  E  E  E  E  E  E     E  E  E  E  E  E  E  E   
--------------------------|--------------------------|
--------------------------|--------------------------|
--3--3--3--3--3--3--3--3--|--3--3--3--3--3--3--5--5--|
--------------------------|--------------------------|


  Solo Adrian Smith                                                  
  >                                                                  
  E                 E  E  E  E  E  E  E     E  E  E  E  E  E  E  E   
-----------------------------------------|--------------------------|
-----------------------------------------|--------------------------|
--5-----------------7--7--7--7--7--7--7--|--7--7--7--7--7--7--7--7--|
-----------------------------------------|--------------------------|


  E  E  E  E  E  E  E  E     E  E  E  E  E  E   E  E   
-----9-----------------9--|---------------------------|
--------9--7-----7--9-----|--9--7-----7--9--7---------|
--7-----------7-----------|--------7-----------10--7--|
--------------------------|---------------------------|


  E  E  E  E  E  E  E  E     E  E  E  E  E  E  Q      
--------------------------|--------------------------|
--------------------------|--------------5--5--7\----|
--5--5--5--5--5--5--5--5--|--5--5--5--5--------------|
--------------------------|--------------------------|


  >        >        >           >        >  >  >  >   
  E  E  E  E  E  E  E  E     E  E  E  E  E  E  E  E   
--------------------------|--------------------------|
--------------------------|--------------------------|
--3--3--3--3--3--3--3--3--|--3--3--3--3--3--3--5--5--|
--------------------------|--------------------------|


  >                                                   
  E  E  E  E  E  E  E  E     E  E  E  E  E  E  E  E   
--------------------------|--------------------------|
--------------------------|--------------------------|
--5--7--7--7--7--7--7--7--|--7--7--7--7--7--7--7--7--|
--------------------------|--------------------------|


      E   E   E   E   E   E   E   E      E   E   E   E   E   E   Q      
-----------------------------14------|----------14---------------------|
--12g14--14--14--14--14--14------14--|--12--14------14--12--14--12\----|
-------------------------------------|---------------------------------|
-------------------------------------|---------------------------------|


  E  E  E  E  E  E  E  E     E  E  E  E  E  E  Q      
--------------------------|--------------------------|
--------------------------|--------------5--5--7\----|
--5--5--5--5--5--5--5--5--|--5--5--5--5--------------|
--------------------------|--------------------------|


                                                       Chorus                   
  >        >        >           >                      >                        
  E  E  E  E  E  E  E  E     E  E  E  E  E  E  Q       Q      E  E  E  E  Q     
--------------------------|-------------------------|--------------------------|
--------------------------|-------------------------|--------------------------|
--3--3--3--3--3--3--3--3--|--3--3--3--3--3--3--5----|--------------------------|
--------------------------|-------------------------|--3------3--3--3--3--3----|


           >           >                          >   
  E  E  E  E  E  E  E  E     E  E  E  E  E  E  E  E   
--------------------------|--------------------------|
--------------------------|--------------------------|
--3--3--3--0--------------|--5--5--5--5--5--5--5--0--|
--------------5--5--5--5--|--------------------------|


           >           >                              
  E  E  E  E  E  E  E  E     E  E  E  E  E  E  E  E   
--------------------------|--------------------------|
--------------------------|--------------------------|
--3--3--3--0--------------|--------------------------|
--------------5--5--5--5--|--0--0--0--0--0--0--0--0--|


  E  E  E  E  E  E  E  E     E  E  E  E  E  E  E  E   
--------------7-----7-----|--5--5--5--7--7--7--9--9--|
-----------7-----7-----7--|--------------------------|
--5--5--5-----------------|--------------------------|
--------------------------|--------------------------|


                                   >                      
  E   E   E   E   E   E   Q        Q    E  E  E  E  Q     
--9--11--11--11--12--12--12\----|------------------------|
--------------------------------|------------------------|
--------------------------------|------------------------|
--------------------------------|--3----3--3--3--3--3----|


           >           >                          >   
  E  E  E  E  E  E  E  E     E  E  E  E  E  E  E  E   
--------------------------|--------------------------|
--------------------------|--------------------------|
--3--3--3--0--------------|--5--5--5--5--5--5--5--0--|
--------------5--5--5--5--|--------------------------|


           >           >                              
  E  E  E  E  E  E  E  E     E  E  E  E  E  E  E  E   
--------------------------|--------------------------|
--------------------------|--------------------------|
--3--3--3--0--------------|--------------------------|
--------------5--5--5--5--|--0--0--0--0--0--0--0--0--|


  E  E  E  E  E  E  E  E     E  E  E  E  E  E  E  E     E  E  E  E  E  E  Q     
--------------7-----7-----|-----5--5-----5--5-----5--|--5-----5--5-----5-------|
-----------7-----7-----7--|--------------------------|-------------------------|
--5--5--5-----------------|--3--------3--------3-----|-----3--------3-----3----|
--------------------------|--------------------------|-------------------------|


  >                                 >           >                          >   
  Q    E  E  E  E  Q       E  E  E  E  E  E  E  E     E  E  E  E  E  E  E  E   
------------------------|--------------------------|--------------------------|
------------------------|--------------------------|--------------------------|
------------------------|--3--3--3--0--------------|--5--5--5--5--5--5--5--0--|
--3----3--3--3--3--3----|--------------5--5--5--5--|--------------------------|


           >           >                              
  E  E  E  E  E  E  E  E     E  E  E  E  E  E  E  E   
--------------------------|--------------------------|
--------------------------|--------------------------|
--3--3--3--0--------------|--------------------------|
--------------5--5--5--5--|--0--0--0--0--0--0--0--0--|


  E  E  E  E  E  E  E  E     E  E  E  E  E  E  E  E   
--------------7-----7-----|--5--5--5--7--7--7--9--9--|
-----------7-----7-----7--|--------------------------|
--5--5--5-----------------|--------------------------|
--------------------------|--------------------------|


                                   >                      
  E   E   E   E   E   E   Q        Q    E  E  E  E  Q     
--9--11--11--11--12--12--12\----|------------------------|
--------------------------------|------------------------|
--------------------------------|------------------------|
--------------------------------|--3----3--3--3--3--3----|


           >           >                          >   
  E  E  E  E  E  E  E  E     E  E  E  E  E  E  E  E   
--------------------------|--------------------------|
--------------------------|--------------------------|
--3--3--3--0--------------|--5--5--5--5--5--5--5--0--|
--------------5--5--5--5--|--------------------------|


           >           >                              
  E  E  E  E  E  E  E  E     E  E  E  E  E  E  E  E   
--------------------------|--------------------------|
--------------------------|--------------------------|
--3--3--3--0--------------|--------------------------|
--------------5--5--5--5--|--0--0--0--0--0--0--0--0--|


  E  E  E  E  E  E  E  E     E  E  E  E  E  E  E  E     E  E  E  E  E  E  Q     
--------------7-----7-----|-----5--5-----5--5-----5--|--5-----5--5-----5-------|
-----------7-----7-----7--|--------------------------|-------------------------|
--5--5--5-----------------|--3--------3--------3-----|-----3--------3-----3----|
--------------------------|--------------------------|-------------------------|


  Riff A                                                    
  ^                                                         
  W                   W                   W                 
-------------------|-------------------|-------------------|
-------------------|-------------------|-------------------|
-------------------|-------------------|-------------------|
--0----------------|--L----------------|--L----------------|


               ^                                                        
  H.           Q           Q.     Q.      Q        E  Q.     Q    Q     
--------------------|--10g12------9------11----|---L--7------9----5----|
--------------------|--------------------------|-----------------------|
--------------------|--------------------------|-----------------------|
--L------------0----|--------------------------|-----------------------|


  Q.     Q.     Q       E  Q.     Q    Q       W                 
--7------4------5----|--L--2------4----0----|-------------------|
---------------------|----------------------|-------------------|
---------------------|----------------------|--5----------------|
---------------------|----------------------|-------------------|


                      Outro                                                 
  W                   E     E  E  E  E  E  E  E     E  E  E  E  E  E  Q     
-------------------|-----------------------------|-------------------------|
-------------------|-----------------------------|--------------7--5-------|
--L----------------|--3-----3--3--2--2--2--0--0--|--0-----------------7----|
-------------------|-----------------------------|-----3--3--3-------------|


  E  E  H.              W                   W                 
-----9--L------------|--L----------------|--L----------------|
-----9--L------------|--L----------------|--L----------------|
--L--7--L------------|--L----------------|--L----------------|
-----0--L------------|--L----------------|--L----------------|


  W                  
--L----------------||
--L----------------||
--L----------------||
--L----------------||




Duration Legend
---------------
W - whole
H - half
Q - quarter
E - 8th
S - 16th
T - 32nd
X - 64th
. - note dotted
|-n-|  - n-tuplets


Tablature Legend
----------------
L - tied note
x - dead note
g - grace note
(n) - ghost note
> - accentuded note
NH - natural harmonic
AH - artificial harmonic
TH - tapped harmonic
SH - semi harmonic
PH - pitch harmonic
h - hammer on
p - pull off
b - bend
br - bendRelease
pb - preBend
pbr - preBendRelease
brb - bendReleaseBend
\n/ - tremolo bar dip
\n - tremolo bar dive
-/n - tremolo bar Release up
/n\ - tremolo bar inverted dip
/n - tremolo bar return
-\n - tremolo bar Release down
S - shift slide
s - legato slide
/ -  slide into from below or out of upwards
\ -  slide into from above or out of downwards
~ - vibrato
W - wide vibrato
tr - trill
TP - tremolo picking
T - tapping
S - slap
P - pop
< - fade in
^ - brush up
v - brush down
Suggest correction
Creating personal tab
Creating personal tab
You can edit any tab online and save it as your Personal.

You can edit, replace or remove any tab part or add personal notes – all changes will be seen only by you.

Personal tabs can be accessed anytime from any device, even offline.
Learn more »
comments
print report bad tab
2 comments total.
0 reply
Eddie82 10 Jun 04, 2013 01:29 AM

This is much better organized than version 1, but it still contains quite a few wrong/missing notes.

guest
You may want to rate the tab now too:
select rating
Wanna post a correction for this tab? Suggest correction