Oops, an error
Loading. Please wait.

Wasted Years tab

version 5
version 5
62,711 views 297 this week
3 commentsread comments
1 2 3 4 5
x 25
add to favorites
×
Save as Personal and add changes to this tab that will be seen only by you. Learn more ›
×
You can save this tab as Personal to edit and correct it or add notes. All changes will be seen only by you. Learn more »
launch autoscroll
font size
0
reset
how to read this tab
guitar tuner
backing track
0:00
0:00
edit
Autoscroll
slow
fast
+/-
esc
set tempo
stop
Author
Difficulty
intermediate
Wasted Years


                                  Iron Maiden

Instruments:
- G #1
- G #2
- G #3
- Voice Melody


Guitar #1:

Adrian Smith

           [Intro]
           >            >          >             >          >      >
     S     E    S S S S E  S S S S E  S S    S S E  S S S S E  S S E  S S
e||----|--12----0-0-0-0-7--0-0-0-0-8--0-0-|--0-0-5--0-0-0-0-7--0-0-3--0-0-|
B||----|----------------------------------|-------------------------------|
G||----|----------------------------------|-------------------------------|
D||----|----------------------------------|-------------------------------|
A||----|----------------------------------|-------------------------------|
E||----|----------------------------------|-------------------------------|

    >          >          >             >          >      >
    E  S S S S E  S S S S E  S S    S S E  S S S S E  S S E  S S
e|--5--0-0-0-0-2--0-0-0-0-3--0-0-|--0-0-5--0-0-0-0-2--0-0-3--0-0-|
B|-------------------------------|-------------------------------|
G|-------------------------------|-------------------------------|
D|-------------------------------|-------------------------------|
A|-------------------------------|-------------------------------|
E|-------------------------------|-------------------------------|

     >          >          >             >          >      >
     E  S S S S E  S S S S E  S S    S S E  S S S S E  S S E  S S
e|--12--0-0-0-0-7--0-0-0-0-8--0-0-|--0-0-5--0-0-0-0-7--0-0-3--0-0-|
B|--------------------------------|-------------------------------|
G|--------------------------------|-------------------------------|
D|--------------------------------|-------------------------------|
A|--------------------------------|-------------------------------|
E|--------------------------------|-------------------------------|

    >          >          >             >          >      >
    E  S S S S E  S S S S E  S S    S S E  S S S S E  S S E  S S
e|--5--0-0-0-0-2--0-0-0-0-3--0-0-|--0-0-5--0-0-0-0-2--0-0-3--0-0-|
B|-------------------------------|-------------------------------|
G|-------------------------------|-------------------------------|
D|-------------------------------|-------------------------------|
A|-------------------------------|-------------------------------|
E|-------------------------------|-------------------------------|

     >          >          >             >          >      >
     E  S S S S E  S S S S E  S S    S S E  S S S S E  S S E  S S
e|--12--0-0-0-0-7--0-0-0-0-8--0-0-|--0-0-5--0-0-0-0-7--0-0-3--0-0-|
B|--------------------------------|-------------------------------|
G|--------------------------------|-------------------------------|
D|--------------------------------|-------------------------------|
A|--------------------------------|-------------------------------|
E|--------------------------------|-------------------------------|

    >          >          >             >          >      >
    E  S S S S E  S S S S E  S S    S S E  S S S S E  S S E  S S
e|--5--0-0-0-0-2--0-0-0-0-3--0-0-|--0-0-5--0-0-0-0-2--0-0-3--0-0-|
B|-------------------------------|-------------------------------|
G|-------------------------------|-------------------------------|
D|-------------------------------|-------------------------------|
A|-------------------------------|-------------------------------|
E|-------------------------------|-------------------------------|

     >          >          >             >          >      >
     E  S S S S E  S S S S E  S S    S S E  S S S S E  S S E  S S
e|--12--0-0-0-0-7--0-0-0-0-8--0-0-|--0-0-5--0-0-0-0-7--0-0-3--0-0-|
B|--------------------------------|-------------------------------|
G|--------------------------------|-------------------------------|
D|--------------------------------|-------------------------------|
A|--------------------------------|-------------------------------|
E|--------------------------------|-------------------------------|

    >          >          >    >       \1
    E  S S S S E  S S S S E    E       W                   H.           Q
e|--5--0-0-0-0-2--0-0-0-0-3-------|---------------------|--------------------|
B|--------------------------------|---------------------|--------------------|
G|---------------------------<>7--|--<>7----------------|--L-----------------|
D|--------------------------------|---------------------|--------------------|
A|--------------------------------|---------------------|--------------------|
E|--------------------------------|---------------------|--------------------|


    [Verse Riff]

                  PM    PM PM    PM    PM    PM PM
    E          E  E  E  E  E  E  E     E  E  E  E  E    E   Q
e|----------------------------------|----------------------------|
B|----------------------------------|----------------------------|
G|----------------------------------|----------------------------|
D|--7s---------9-----9--------9-----|-----9--------9s--12--12----|
A|--5s---------7-----7--------7-----|-----7--------7s--10--10----|
E|----------------0-----0--0-----0--|--0-----0--0----------------|

            PM    PM PM    PM    PM    PM PM
     E   E  E  E  E  E  E  E     E  E  E  E  E  E  E  E
e|----------------------------|--------------------------|
B|----------------------------|--------------------------|
G|----------------------------|--------------------------|
D|--12---7-----7--------7-----|-----7--------7--7--7--7--|
A|--10s--5--5--5--5--5--5--5--|--5--5--5--5--5--5--5--5--|
E|----------------------------|--------------------------|

           PM    PM PM    PM    PM    PM PM
    E   E  E  E  E  E  E  E     E  E  E  E  E    E   E   E
e|---------------------------|------------------------------|
B|---------------------------|------------------------------|
G|---------------------------|------------------------------|
D|--7s--9-----9--------9-----|-----9--------9s--12--12--12--|
A|--5s--7-----7--------7-----|-----7--------7s--10--10--10--|
E|---------0-----0--0-----0--|--0-----0--0------------------|

            PM       PM
     E   E  E   Q    E   Q        E   E   E   E   E   E   E   E
e|----------------------------|----------------------------------|
B|----------------------------|----------------------------------|
G|----------------------------|----------------------------------|
D|--12---------12-------12----|---L--12--12--12--12--12--12--12--|
A|--10s--9--9---9----9---9----|---L--10--10--10--10--10--10--10--|
E|----------------------------|----------------------------------|

            PM      PM
     E   E  E  Q    E  Q       E  E  E  E  E  E  E  E
e|-------------0-------0----|--L--0--0--0--0-----------|
B|-------------0-------0----|-----0--0--0--0-----------|
G|-------------5-------5----|--L--5--5--5--5-----------|
D|--12---5--5--5----5--5----|--L--5--5--5--5--4--4--4--|
A|--10s--3--3--3----3--3----|--L--3--3--3--3--5--5--5--|
E|--------------------------|--------------------------|

          PM    PM PM    PM    PM    PM PM
    E  E  E  E  E  E  E  E     E  E  E  E  E    E   E   E
e|--------------------------|------------------------------|
B|--------------------------|------------------------------|
G|--------------------------|------------------------------|
D|--4--5-----9--------9-----|-----9--------9s--12--12--12--|
A|--5--7-----7--------7-----|-----7--------7s--10--10--10--|
E|--------0-----0--0-----0--|--0-----0--0------------------|

            PM    PM PM    PM    PM    PM PM
     E   E  E  E  E  E  E  E     E  E  E  E  E   E   E   E
e|----------------------------|-----------------------------|
B|----------------------------|-----------------------------|
G|----------------------------|-----------------------------|
D|--12---7-----7--------7-----|-----7--------7--12--12--12--|
A|--10s--5--5--5--5--5--5--5--|--5--5--5--5--5--10--10--10--|
E|----------------------------|-----------------------------|

            PM      PM
     E   E  E  Q    E  Q       H        E  E  E  E
e|-------------0-------0----|--L--------L-----------|
B|-------------0-------0----|--L--------L-----------|
G|-------------5-------5----|--L--------L-----------|
D|--12---5--5--5----5--5----|--L--------L--4--4--4--|
A|--10s--3--3--3----3--3----|--L--------L--5--5--5--|
E|--------------------------|-----------------------|


    [Verse Riff]
                  PM    PM PM    PM    PM    PM PM
    E          E  E  E  E  E  E  E     E  E  E  E  E    E   Q
e|----------------------------------|----------------------------|
B|----------------------------------|----------------------------|
G|----------------------------------|----------------------------|
D|--4----------5-----9--------9-----|-----9--------9s--12--12----|
A|--5----------7-----7--------7-----|-----7--------7s--10--10----|
E|----------------0-----0--0-----0--|--0-----0--0----------------|

            PM    PM PM    PM    PM    PM PM
     E   E  E  E  E  E  E  E     E  E  E  E  E  E  E  E
e|----------------------------|--------------------------|
B|----------------------------|--------------------------|
G|----------------------------|--------------------------|
D|--12---7-----7--------7-----|-----7--------7--7--7--7--|
A|--10s--5--5--5--5--5--5--5--|--5--5--5--5--5--5--5--5--|
E|----------------------------|--------------------------|

           PM    PM PM    PM    PM    PM PM
    E   E  E  E  E  E  E  E     E  E  E  E  E    E   E   E
e|---------------------------|------------------------------|
B|---------------------------|------------------------------|
G|---------------------------|------------------------------|
D|--7s--9-----9--------9-----|-----9--------9s--12--12--12--|
A|--5s--7-----7--------7-----|-----7--------7s--10--10--10--|
E|---------0-----0--0-----0--|--0-----0--0------------------|

            PM       PM
     E   E  E   Q    E   Q        E   E   E   E   E   E   E   E
e|----------------------------|----------------------------------|
B|----------------------------|----------------------------------|
G|----------------------------|----------------------------------|
D|--12---------12-------12----|---L--12--12--12--12--12--12--12--|
A|--10s--9--9---9----9---9----|---L--10--10--10--10--10--10--10--|
E|----------------------------|----------------------------------|

            PM      PM
     E   E  E  Q    E  Q       E  E  E  E  E  E  E  E
e|-------------0-------0----|--L--0--0--0--0-----------|
B|-------------0-------0----|-----0--0--0--0-----------|
G|-------------5-------5----|--L--5--5--5--5-----------|
D|--12---5--5--5----5--5----|--L--5--5--5--5--4--4--4--|
A|--10s--3--3--3----3--3----|--L--3--3--3--3--5--5--5--|
E|--------------------------|--------------------------|

          PM    PM PM    PM    PM    PM PM
    E  E  E  E  E  E  E  E     E  E  E  E  E    E   E   E
e|--------------------------|------------------------------|
B|--------------------------|------------------------------|
G|--------------------------|------------------------------|
D|--4--5-----9--------9-----|-----9--------9s--12--12--12--|
A|--5--7-----7--------7-----|-----7--------7s--10--10--10--|
E|--------0-----0--0-----0--|--0-----0--0------------------|

            PM    PM PM    PM    PM    PM PM
     E   E  E  E  E  E  E  E     E  E  E  E  E   E   E   E
e|----------------------------|-----------------------------|
B|----------------------------|-----------------------------|
G|----------------------------|-----------------------------|
D|--12---7-----7--------7-----|-----7--------7--12--12--12--|
A|--10s--5--5--5--5--5--5--5--|--5--5--5--5--5--10--10--10--|
E|----------------------------|-----------------------------|

                                                  [Chorus]
            PM      PM                             ^      ^  v    v  ^
     E   E  E  Q    E  Q       W                   Q      E  Q    E  Q
e|-------------0-------0----|--L----------------|--3------3--3----3--3----|
B|-------------0-------0----|--L----------------|--3------3--3----3--3----|
G|-------------5-------5----|--L----------------|--0------0--0----0--0----|
D|--12---5--5--5----5--5----|--L----------------|--0------0--0----0--0----|
A|--10s--3--3--3----3--3----|--L----------------|--x------x--x----x--x----|
E|--------------------------|-------------------|--3------3--3----3--3----|

    ^  v  ^    ^  v  ^       ^    ^  v    v  ^       ^  v  ^    ^  v  ^
    E  E  Q    E  E  Q       Q    E  Q    E  Q       E  E  Q    E  E  Q
e|------------------------|-----------------------|------------------------|
B|------------------------|-----------------------|------------------------|
G|--5--5--5---------------|--7----7--7----7--7----|--5--5--5---------------|
D|--5--5--5----7--7--7----|--7----7--7----7--7----|--5--5--5----7--7--7----|
A|--3--3--3----7--7--7----|--5----5--5----5--5----|--3--3--3----7--7--7----|
E|-------------5--5--5----|-----------------------|-------------5--5--5----|

    ^    ^  v    v  ^       ^    ^  v    v  ^
    Q    E  Q    E  Q       Q    E  Q    E  Q       Q.     Q.     Q
e|-----------------------|-----------------------|--3------3------3----|
B|-----------------------|--3----3--3----3--3----|--3------3------3----|
G|-----------------------|--2----2--2----2--2----|--0------0------0----|
D|--2----2--2----2--2----|--0----0--0----0--0----|--x------x------x----|
A|--2----2--2----2--2----|-----------------------|--3------3------3----|
E|--0----0--0----0--0----|-----------------------|---------------------|

                           ^    ^  v    v  ^       ^  v  ^    ^  v  ^
    E  Q.     Q    Q       Q    E  Q    E  Q       E  E  Q    E  E  Q
e|--L--3------3----3----|--3----3--3----3--3----|------------------------|
B|--L--3------3----3----|--3----3--3----3--3----|------------------------|
G|--L--0------0----0----|--0----0--0----0--0----|--5--5--5---------------|
D|--L--x------x----x----|--0----0--0----0--0----|--5--5--5----7--7--7----|
A|--L--3------3----3----|--x----x--x----x--x----|--3--3--3----7--7--7----|
E|----------------------|--3----3--3----3--3----|-------------5--5--5----|

    ^    ^  v    v  ^       ^  v  ^    ^  v  ^       ^    ^  v    v  ^
    Q    E  Q    E  Q       E  E  Q    E  E  Q       Q    E  Q    E  Q
e|-----------------------|------------------------|-----------------------|
B|-----------------------|------------------------|-----------------------|
G|--7----7--7----7--7----|--5--5--5---------------|-----------------------|
D|--7----7--7----7--7----|--5--5--5----7--7--7----|--2----2--2----2--2----|
A|--5----5--5----5--5----|--3--3--3----7--7--7----|--2----2--2----2--2----|
E|-----------------------|-------------5--5--5----|--0----0--0----0--0----|

    ^    ^  v    v  ^
    Q    E  Q    E  Q       Q.     Q.     Q       E  Q.     Q    Q
e|-----------------------|--3------3------3----|--L--3------3----3----|
B|--3----3--3----3--3----|--3------3------3----|--L--3------3----3----|
G|--2----2--2----2--2----|--0------0------0----|--L--0------0----0----|
D|--0----0--0----0--0----|--x------x------x----|--L--x------x----x----|
A|-----------------------|--3------3------3----|--L--3------3----3----|
E|-----------------------|---------------------|----------------------|


    [Verse Riff]

                  PM    PM PM    PM    PM    PM PM
    E          E  E  E  E  E  E  E     E  E  E  E  E    E   Q
e|----------------------------------|----------------------------|
B|----------------------------------|----------------------------|
G|----------------------------------|----------------------------|
D|--7s---------9-----9--------9-----|-----9--------9s--12--12----|
A|--5s---------7-----7--------7-----|-----7--------7s--10--10----|
E|----------------0-----0--0-----0--|--0-----0--0----------------|

            PM    PM PM    PM    PM    PM PM
     E   E  E  E  E  E  E  E     E  E  E  E  E  E  E  E
e|----------------------------|--------------------------|
B|----------------------------|--------------------------|
G|----------------------------|--------------------------|
D|--12---7-----7--------7-----|-----7--------7--7--7--7--|
A|--10s--5--5--5--5--5--5--5--|--5--5--5--5--5--5--5--5--|
E|----------------------------|--------------------------|

           PM    PM PM    PM    PM    PM PM
    E   E  E  E  E  E  E  E     E  E  E  E  E    E   E   E
e|---------------------------|------------------------------|
B|---------------------------|------------------------------|
G|---------------------------|------------------------------|
D|--7s--9-----9--------9-----|-----9--------9s--12--12--12--|
A|--5s--7-----7--------7-----|-----7--------7s--10--10--10--|
E|---------0-----0--0-----0--|--0-----0--0------------------|

            PM       PM
     E   E  E   Q    E   Q        E   E   E   E   E   E   E   E
e|----------------------------|----------------------------------|
B|----------------------------|----------------------------------|
G|----------------------------|----------------------------------|
D|--12---------12-------12----|---L--12--12--12--12--12--12--12--|
A|--10s--9--9---9----9---9----|---L--10--10--10--10--10--10--10--|
E|----------------------------|----------------------------------|

            PM      PM
     E   E  E  Q    E  Q       E  E  E  E  E  E  E  E
e|-------------0-------0----|--L--0--0--0--0-----------|
B|-------------0-------0----|-----0--0--0--0-----------|
G|-------------5-------5----|--L--5--5--5--5-----------|
D|--12---5--5--5----5--5----|--L--5--5--5--5--4--4--4--|
A|--10s--3--3--3----3--3----|--L--3--3--3--3--5--5--5--|
E|--------------------------|--------------------------|

          PM    PM PM    PM    PM    PM PM
    E  E  E  E  E  E  E  E     E  E  E  E  E    E   E   E
e|--------------------------|------------------------------|
B|--------------------------|------------------------------|
G|--------------------------|------------------------------|
D|--4--5-----9--------9-----|-----9--------9s--12--12--12--|
A|--5--7-----7--------7-----|-----7--------7s--10--10--10--|
E|--------0-----0--0-----0--|--0-----0--0------------------|

            PM    PM PM    PM    PM    PM PM
     E   E  E  E  E  E  E  E     E  E  E  E  E   E   E   E
e|----------------------------|-----------------------------|
B|----------------------------|-----------------------------|
G|----------------------------|-----------------------------|
D|--12---7-----7--------7-----|-----7--------7--12--12--12--|
A|--10s--5--5--5--5--5--5--5--|--5--5--5--5--5--10--10--10--|
E|----------------------------|-----------------------------|


                                                   [Chorus]

            PM      PM                             ^      ^  v    v  ^
     E   E  E  Q    E  Q       W                   Q      E  Q    E  Q
e|-------------0-------0----|--L----------------|--3------3--3----3--3----|
B|-------------0-------0----|--L----------------|--3------3--3----3--3----|
G|-------------5-------5----|--L----------------|--0------0--0----0--0----|
D|--12---5--5--5----5--5----|--L----------------|--0------0--0----0--0----|
A|--10s--3--3--3----3--3----|--L----------------|--x------x--x----x--x----|
E|--------------------------|-------------------|--3------3--3----3--3----|

    ^  v  ^    ^  v  ^       ^    ^  v    v  ^       ^  v  ^    ^  v  ^
    E  E  Q    E  E  Q       Q    E  Q    E  Q       E  E  Q    E  E  Q
e|------------------------|-----------------------|------------------------|
B|------------------------|-----------------------|------------------------|
G|--5--5--5---------------|--7----7--7----7--7----|--5--5--5---------------|
D|--5--5--5----7--7--7----|--7----7--7----7--7----|--5--5--5----7--7--7----|
A|--3--3--3----7--7--7----|--5----5--5----5--5----|--3--3--3----7--7--7----|
E|-------------5--5--5----|-----------------------|-------------5--5--5----|

    ^    ^  v    v  ^       ^    ^  v    v  ^
    Q    E  Q    E  Q       Q    E  Q    E  Q       Q.     Q.     Q
e|-----------------------|-----------------------|--3------3------3----|
B|-----------------------|--3----3--3----3--3----|--3------3------3----|
G|-----------------------|--2----2--2----2--2----|--0------0------0----|
D|--2----2--2----2--2----|--0----0--0----0--0----|--x------x------x----|
A|--2----2--2----2--2----|-----------------------|--3------3------3----|
E|--0----0--0----0--0----|-----------------------|---------------------|

                           ^    ^  v    v  ^       ^  v  ^    ^  v  ^
    E  Q.     Q    Q       Q    E  Q    E  Q       E  E  Q    E  E  Q
e|--L--3------3----3----|--3----3--3----3--3----|------------------------|
B|--L--3------3----3----|--3----3--3----3--3----|------------------------|
G|--L--0------0----0----|--0----0--0----0--0----|--5--5--5---------------|
D|--L--x------x----x----|--0----0--0----0--0----|--5--5--5----7--7--7----|
A|--L--3------3----3----|--x----x--x----x--x----|--3--3--3----7--7--7----|
E|----------------------|--3----3--3----3--3----|-------------5--5--5----|

    ^    ^  v    v  ^       ^  v  ^    ^  v  ^       ^    ^  v    v  ^
    Q    E  Q    E  Q       E  E  Q    E  E  Q       Q    E  Q    E  Q
e|-----------------------|------------------------|-----------------------|
B|-----------------------|------------------------|-----------------------|
G|--7----7--7----7--7----|--5--5--5---------------|-----------------------|
D|--7----7--7----7--7----|--5--5--5----7--7--7----|--2----2--2----2--2----|
A|--5----5--5----5--5----|--3--3--3----7--7--7----|--2----2--2----2--2----|
E|-----------------------|-------------5--5--5----|--0----0--0----0--0----|

    ^    ^  v    v  ^
    Q    E  Q    E  Q       Q.     Q.     Q       E  Q.     Q    Q
e|-----------------------|--3------3------3----|--L--3------3----3----|
B|--3----3--3----3--3----|--3------3------3----|--L--3------3----3----|
G|--2----2--2----2--2----|--0------0------0----|--L--0------0----0----|
D|--0----0--0----0--0----|--x------x------x----|--L--x------x----x----|
A|-----------------------|--3------3------3----|--L--3------3----3----|
E|-----------------------|---------------------|----------------------|


     [Riff A]

     >             >          >             >          >      >
     E     S S S S E  S S S S E  S S    S S E  S S S S E  S S E  S S
e|--12-----0-0-0-0-7--0-0-0-0-8--0-0-|--0-0-5--0-0-0-0-7--0-0-3--0-0-|
B|-----------------------------------|-------------------------------|
G|-----------------------------------|-------------------------------|
D|-----------------------------------|-------------------------------|
A|-----------------------------------|-------------------------------|
E|-----------------------------------|-------------------------------|

    >          >          >             >          >      >
    E  S S S S E  S S S S E  S S    S S E  S S S S E  S S E  S S
e|--5--0-0-0-0-2--0-0-0-0-3--0-0-|--0-0-5--0-0-0-0-2--0-0-3--0-0-|
B|-------------------------------|-------------------------------|
G|-------------------------------|-------------------------------|
D|-------------------------------|-------------------------------|
A|-------------------------------|-------------------------------|
E|-------------------------------|-------------------------------|

     >          >          >             >          >      >
     E  S S S S E  S S S S E  S S    S S E  S S S S E  S S E  S S
e|--12--0-0-0-0-7--0-0-0-0-8--0-0-|--0-0-5--0-0-0-0-7--0-0-3--0-0-|
B|--------------------------------|-------------------------------|
G|--------------------------------|-------------------------------|
D|--------------------------------|-------------------------------|
A|--------------------------------|-------------------------------|
E|--------------------------------|-------------------------------|

    >          >          >             >          >      >
    E  S S S S E  S S S S E  S S    S S E  S S S S E  S S E  S S
e|--5--0-0-0-0-2--0-0-0-0-3--0-0-|--0-0-5--0-0-0-0-2--0-0-3--0-0-|
B|-------------------------------|-------------------------------|
G|-------------------------------|-------------------------------|
D|-------------------------------|-------------------------------|
A|-------------------------------|-------------------------------|
E|-------------------------------|-------------------------------|

     >          >          >             >          >      >
     E  S S S S E  S S S S E  S S    S S E  S S S S E  S S E  S S
e|--12--0-0-0-0-7--0-0-0-0-8--0-0-|--0-0-5--0-0-0-0-7--0-0-3--0-0-|
B|--------------------------------|-------------------------------|
G|--------------------------------|-------------------------------|
D|--------------------------------|-------------------------------|
A|--------------------------------|-------------------------------|
E|--------------------------------|-------------------------------|

    >          >          >             >          >      >
    E  S S S S E  S S S S E  S S    S S E  S S S S E  S S E  S S
e|--5--0-0-0-0-2--0-0-0-0-3--0-0-|--0-0-5--0-0-0-0-2--0-0-3--0-0-|
B|-------------------------------|-------------------------------|
G|-------------------------------|-------------------------------|
D|-------------------------------|-------------------------------|
A|-------------------------------|-------------------------------|
E|-------------------------------|-------------------------------|


     [Riff B]

     >             >          >             >          >      >
     E     S S S S E  S S S S E  S S    S S E  S S S S E  S S E  S S
e|--12-----0-0-0-0-7--0-0-0-0-8--0-0-|--0-0-5--0-0-0-0-7--0-0-3--0-0-|
B|-----------------------------------|-------------------------------|
G|-----------------------------------|-------------------------------|
D|-----------------------------------|-------------------------------|
A|-----------------------------------|-------------------------------|
E|-----------------------------------|-------------------------------|

    >          >          >             >          >      >
    E  S S S S E  S S S S E  S S    S S E  S S S S E  S S E  S S
e|--5--0-0-0-0-2--0-0-0-0-3--0-0-|--0-0-5--0-0-0-0-2--0-0-3--0-0-|
B|-------------------------------|-------------------------------|
G|-------------------------------|-------------------------------|
D|-------------------------------|-------------------------------|
A|-------------------------------|-------------------------------|
E|-------------------------------|-------------------------------|

     >          >          >             >          >      >
     E  S S S S E  S S S S E  S S    S S E  S S S S E  S S E  S S
e|--12--0-0-0-0-7--0-0-0-0-8--0-0-|--0-0-5--0-0-0-0-7--0-0-3--0-0-|
B|--------------------------------|-------------------------------|
G|--------------------------------|-------------------------------|
D|--------------------------------|-------------------------------|
A|--------------------------------|-------------------------------|
E|--------------------------------|-------------------------------|

    >          >          >             >          >      >
    E  S S S S E  S S S S E  S S    S S E  S S S S E  S S E  S S
e|--5--0-0-0-0-2--0-0-0-0-3--0-0-|--0-0-5--0-0-0-0-2--0-0-3--0-0-|
B|-------------------------------|-------------------------------|
G|-------------------------------|-------------------------------|
D|-------------------------------|-------------------------------|
A|-------------------------------|-------------------------------|
E|-------------------------------|-------------------------------|

     >          >          >             >          >      >
     E  S S S S E  S S S S E  S S    S S E  S S S S E  S S E  S S
e|--12--0-0-0-0-7--0-0-0-0-8--0-0-|--0-0-5--0-0-0-0-7--0-0-3--0-0-|
B|--------------------------------|-------------------------------|
G|--------------------------------|-------------------------------|
D|--------------------------------|-------------------------------|
A|--------------------------------|-------------------------------|
E|--------------------------------|-------------------------------|

    >          >          >             >          >      >
    E  S S S S E  S S S S E  S S    S S E  S S S S E  S S E  S S
e|--5--0-0-0-0-2--0-0-0-0-3--0-0-|--0-0-5--0-0-0-0-2--0-0-3--0-0-|
B|-------------------------------|-------------------------------|
G|-------------------------------|-------------------------------|
D|-------------------------------|-------------------------------|
A|-------------------------------|-------------------------------|
E|-------------------------------|-------------------------------|


                                   [Pre-Solo]

     >          >          >                    >          >  >     >
     E  S S S S E  S S S S E  S S    S        S E  S S S S E  E  E  E
e|--12--0-0-0-0-7--0-0-0-0-8--0-0-|--0--------0-5--0-0-0-0-7--0--0--0--|
B|--------------------------------|------------------------------0-----|
G|--------------------------------|------------------------------------|
D|--------------------------------|------------------------------------|
A|--------------------------------|------------------------------------|
E|--------------------------------|------------------------------------|

    >        >         >             >             >      >
    Q    E   E  E  E   Q       S S   E.  S  E      E.  S  E  S S
e|--0----0---0--0--0---0----|--L-0---0------0------0------0----7-|
B|--5----5S--7--7--7S--8----|--L-8S-10-----10--10g12-----13------|
G|--------------------------|------------------------------------|
D|--------------------------|------------------------------------|
A|--------------------------|------------------------------------|
E|--------------------------|------------------------------------|

     Solo Adrian Smith
     S                S  S  S  S S  S  S  S  S  S S  S  S  S  S
e|-------------------------------7----------------7--------------|
B|--10p---------------0h-8p-0h-8---10p-0h-8p-0h-8---10p-0h-8p-0h-|
G|---------------------------------------------------------------|
D|---------------------------------------------------------------|
A|---------------------------------------------------------------|
E|---------------------------------------------------------------|

    S S  S  S  S  S  S S  S  S  S  S  S  S E       E.  E.  E   E.   E.    E
e|----7----------------7------------------------|----------------------------|
B|--8---10p-0h-8p-0h-8---10p-0h-8p-0h-8p-0-7br--|--L---L---------------------|
G|----------------------------------------------|----------9p--7h---9s---11--|
D|----------------------------------------------|----------------------------|
A|----------------------------------------------|----------------------------|
E|----------------------------------------------|----------------------------|

         \0/ \0/
    Q    E   E.  E.  E   E      S  S  S  S  E.    S   S   S  E    S  S  S  S
e|-------------------0-------|----12-----------------------------12-----------|
B|----------------------15b--|--L----15-12-------12h-15p-12-15b-----15-12-----|
G|--9----L---L---------------|-------------14b----------------------------14b-|
D|---------------------------|------------------------------------------------|
A|---------------------------|------------------------------------------------|
E|---------------------------|------------------------------------------------|

    S  S   S   S  E.     S  Q      E   E
e|-------------------------14b-----L--14pb--|
B|----12h-15p-12-15br---12------------------|
G|--L---------------------------------------|
D|------------------------------------------|
A|------------------------------------------|
E|------------------------------------------|

     E.   S    E   E     Q        S   S  E       H.            E   E
e|---L---14pb--L--14pb--14pbr----14p-12------|--------------------15--|
B|--------------------------------------13~--|---L-------------L------|
G|-------------------------------------------|------------------------|
D|-------------------------------------------|------------------------|
A|-------------------------------------------|------------------------|
E|-------------------------------------------|------------------------|

     S  S   S  S   S  S  S  S   S  S   S  S  S  S   S  S
e|-------------------15------------------15---------------|
B|--19p-0h-17p-0h-17----19p-0h-17p-0h-17----19p-0h-17p-0h-|
G|--------------------------------------------------------|
D|--------------------------------------------------------|
A|--------------------------------------------------------|
E|--------------------------------------------------------|

     S  S  S  S   S  S   S  S  S  S   S  S   S  S  S  S
e|-----15------------------15------------------15--------|
B|--17----19p-0h-17p-0h-17----19p-0h-17p-0h-17----19p-0h-|
G|-------------------------------------------------------|
D|-------------------------------------------------------|
A|-------------------------------------------------------|
E|-------------------------------------------------------|

     S  S   S  S  S  S   S  S   S  S  S  S   S  S   S  S
e|------------15------------------15------------------15-|
B|--17p-0h-17----19p-0h-17p-0h-17----19p-0h-17p-0h-17----|
G|-------------------------------------------------------|
D|-------------------------------------------------------|
A|-------------------------------------------------------|
E|-------------------------------------------------------|

     S    S  S  S  Q      S  E.   E  S  S
e|-------------15--------------------0-12-|
B|--19br-17-17----17~-----L--L\-----------|
G|----------------------------------------|
D|----------------------------------------|
A|----------------------------------------|
E|----------------------------------------|

     S   S  S  S   S   S  S   S  S   S  S  S  S   S  S   S
e|--14h-15-12-14h-15p-12-----------------------------------|
B|-----------------------13h-15-12h-13----12---------------|
G|-------------------------------------14----12h-14-11h-12-|
D|---------------------------------------------------------|
A|---------------------------------------------------------|
E|---------------------------------------------------------|

                                                                    |---3---|
   S  S  S   S  S   S H          S   S      E   E   E   E   E   E   E   E   E
----------------------------------------|--------------------------17------17--|
--------------------------------15S-17~-|---L--19--20--17--19--20------20------|
-----11---------------------------------|--------------------------------------|
--14----12h-14-10h-12-9~----------------|--------------------------------------|
----------------------------------------|--------------------------------------|
----------------------------------------|--------------------------------------|


                                              [Chorus]
    |---3---|   |---3---|
     E   E   E   E   E   E   Q       S  S  E      H        E   Q     E
e|--19--17--19--20--19--20--22br-----L-20-22--|---L--------L--20----19--|
B|--------------------------------------------|-------------------------|
G|--------------------------------------------|-------------------------|
D|--------------------------------------------|-------------------------|
A|--------------------------------------------|-------------------------|
E|--------------------------------------------|-------------------------|

                                          /0\ /0\ /0\ /0\ /0\ /0\ /0\ /0\
    |--3--|           |-----3-----|
    Q     H           Q     Q     Q        E   E   E   E   E   E   E   E
e|--20----20br--------19----------------|----------------------------------|
B|--------------------------20----------|----------------------------------|
G|--------------------------------19----|--19---L---L---L---L---L---L---L--|
D|--------------------------------------|----------------------------------|
A|--------------------------------------|----------------------------------|
E|--------------------------------------|----------------------------------|

     /0\ /0\ /0\ /0\ /0\ /0\ /0\      ^    ^  v    v  ^
     E   E   E   E   E   E   E  E     Q    E  Q    E  Q
e|---------------------------------|-----------------------|
B|---------------------------------|-----------------------|
G|---L---L---L---L---L---L---L-----|-----------------------|
D|---------------------------------|--2----2--2----2--2----|
A|---------------------------------|--2----2--2----2--2----|
E|---------------------------------|--0----0--0----0--0----|

    ^    ^  v    v  ^
    Q    E  Q    E  Q       Q.     Q.     Q       E  Q.     Q    Q
e|-----------------------|--3------3------3----|--L--3------3----3----|
B|--3----3--3----3--3----|--3------3------3----|--L--3------3----3----|
G|--2----2--2----2--2----|--0------0------0----|--L--0------0----0----|
D|--0----0--0----0--0----|--x------x------x----|--L--x------x----x----|
A|-----------------------|--3------3------3----|--L--3------3----3----|
E|-----------------------|---------------------|----------------------|

    ^    ^  v    v  ^       ^  v  ^    ^  v  ^       ^    ^  v    v  ^
    Q    E  Q    E  Q       E  E  Q    E  E  Q       Q    E  Q    E  Q
e|--3----3--3----3--3----|------------------------|-----------------------|
B|--3----3--3----3--3----|------------------------|-----------------------|
G|--0----0--0----0--0----|--5--5--5---------------|--7----7--7----7--7----|
D|--0----0--0----0--0----|--5--5--5----7--7--7----|--7----7--7----7--7----|
A|--x----x--x----x--x----|--3--3--3----7--7--7----|--5----5--5----5--5----|
E|--3----3--3----3--3----|-------------5--5--5----|-----------------------|

    ^  v  ^    ^  v  ^       ^    ^  v    v  ^       ^    ^  v    v  ^
    E  E  Q    E  E  Q       Q    E  Q    E  Q       Q    E  Q    E  Q
e|------------------------|-----------------------|-----------------------|
B|------------------------|-----------------------|--3----3--3----3--3----|
G|--5--5--5---------------|-----------------------|--2----2--2----2--2----|
D|--5--5--5----7--7--7----|--2----2--2----2--2----|--0----0--0----0--0----|
A|--3--3--3----7--7--7----|--2----2--2----2--2----|-----------------------|
E|-------------5--5--5----|--0----0--0----0--0----|-----------------------|

                                                 ^    ^  v    v  ^
    Q.     Q.     Q       E  Q.     Q    Q       Q    E  Q    E  Q
e|--3------3------3----|--L--3------3----3----|--3----3--3----3--3----|
B|--3------3------3----|--L--3------3----3----|--3----3--3----3--3----|
G|--0------0------0----|--L--0------0----0----|--0----0--0----0--0----|
D|--x------x------x----|--L--x------x----x----|--0----0--0----0--0----|
A|--3------3------3----|--L--3------3----3----|--x----x--x----x--x----|
E|---------------------|----------------------|--3----3--3----3--3----|

    ^  v  ^    ^  v  ^       ^    ^  v    v  ^       ^  v  ^    ^  v  ^
    E  E  Q    E  E  Q       Q    E  Q    E  Q       E  E  Q    E  E  Q
e|------------------------|-----------------------|------------------------|
B|------------------------|-----------------------|------------------------|
G|--5--5--5---------------|--7----7--7----7--7----|--5--5--5---------------|
D|--5--5--5----7--7--7----|--7----7--7----7--7----|--5--5--5----7--7--7----|
A|--3--3--3----7--7--7----|--5----5--5----5--5----|--3--3--3----7--7--7----|
E|-------------5--5--5----|-----------------------|-------------5--5--5----|

    ^    ^  v    v  ^       ^    ^  v    v  ^
    Q    E  Q    E  Q       Q    E  Q    E  Q       Q.     Q.     Q
e|-----------------------|-----------------------|--3------3------3----|
B|-----------------------|--3----3--3----3--3----|--3------3------3----|
G|-----------------------|--2----2--2----2--2----|--0------0------0----|
D|--2----2--2----2--2----|--0----0--0----0--0----|--x------x------x----|
A|--2----2--2----2--2----|-----------------------|--3------3------3----|
E|--0----0--0----0--0----|-----------------------|---------------------|

                           ^    ^  v    v  ^       ^  v  ^    ^  v  ^
    E  Q.     Q    Q       Q    E  Q    E  Q       E  E  Q    E  E  Q
e|--L--3------3----3----|--3----3--3----3--3----|------------------------|
B|--L--3------3----3----|--3----3--3----3--3----|------------------------|
G|--L--0------0----0----|--0----0--0----0--0----|--5--5--5---------------|
D|--L--x------x----x----|--0----0--0----0--0----|--5--5--5----7--7--7----|
A|--L--3------3----3----|--x----x--x----x--x----|--3--3--3----7--7--7----|
E|----------------------|--3----3--3----3--3----|-------------5--5--5----|

    ^    ^  v    v  ^       ^  v  ^    ^  v  ^       ^    ^  v    v  ^
    Q    E  Q    E  Q       E  E  Q    E  E  Q       Q    E  Q    E  Q
e|-----------------------|------------------------|-----------------------|
B|-----------------------|------------------------|-----------------------|
G|--7----7--7----7--7----|--5--5--5---------------|-----------------------|
D|--7----7--7----7--7----|--5--5--5----7--7--7----|--2----2--2----2--2----|
A|--5----5--5----5--5----|--3--3--3----7--7--7----|--2----2--2----2--2----|
E|-----------------------|-------------5--5--5----|--0----0--0----0--0----|

    ^    ^  v    v  ^
    Q    E  Q    E  Q       Q.     Q.     Q       E  Q.     Q    Q
e|-----------------------|--3------3------3----|--L--3------3----3----|
B|--3----3--3----3--3----|--3------3------3----|--L--3------3----3----|
G|--2----2--2----2--2----|--0------0------0----|--L--0------0----0----|
D|--0----0--0----0--0----|--x------x------x----|--L--x------x----x----|
A|-----------------------|--3------3------3----|--L--3------3----3----|
E|-----------------------|---------------------|----------------------|


     [Riff A]

     >             >          >             >          >      >
     E     S S S S E  S S S S E  S S    S S E  S S S S E  S S E  S S
e|--12-----0-0-0-0-7--0-0-0-0-8--0-0-|--0-0-5--0-0-0-0-7--0-0-3--0-0-|
B|-----------------------------------|-------------------------------|
G|-----------------------------------|-------------------------------|
D|-----------------------------------|-------------------------------|
A|-----------------------------------|-------------------------------|
E|-----------------------------------|-------------------------------|

    >          >          >             >          >      >
    E  S S S S E  S S S S E  S S    S S E  S S S S E  S S E  S S
e|--5--0-0-0-0-2--0-0-0-0-3--0-0-|--0-0-5--0-0-0-0-2--0-0-3--0-0-|
B|-------------------------------|-------------------------------|
G|-------------------------------|-------------------------------|
D|-------------------------------|-------------------------------|
A|-------------------------------|-------------------------------|
E|-------------------------------|-------------------------------|

     >          >          >             >          >      >
     E  S S S S E  S S S S E  S S    S S E  S S S S E  S S E  S S
e|--12--0-0-0-0-7--0-0-0-0-8--0-0-|--0-0-5--0-0-0-0-7--0-0-3--0-0-|
B|--------------------------------|-------------------------------|
G|--------------------------------|-------------------------------|
D|--------------------------------|-------------------------------|
A|--------------------------------|-------------------------------|
E|--------------------------------|-------------------------------|

    >          >          >             >          >      >
    E  S S S S E  S S S S E  S S    S S E  S S S S E  S S E  S S
e|--5--0-0-0-0-2--0-0-0-0-3--0-0-|--0-0-5--0-0-0-0-2--0-0-3--0-0-|
B|-------------------------------|-------------------------------|
G|-------------------------------|-------------------------------|
D|-------------------------------|-------------------------------|
A|-------------------------------|-------------------------------|
E|-------------------------------|-------------------------------|

     >          >          >             >          >      >
     E  S S S S E  S S S S E  S S    S S E  S S S S E  S S E  S S
e|--12--0-0-0-0-7--0-0-0-0-8--0-0-|--0-0-5--0-0-0-0-7--0-0-3--0-0-|
B|--------------------------------|-------------------------------|
G|--------------------------------|-------------------------------|
D|--------------------------------|-------------------------------|
A|--------------------------------|-------------------------------|
E|--------------------------------|-------------------------------|


     [Outro]
                                                             \1/  \1/  \1/
     Q.     Q.     Q       E  E  Q    E  E  Q        E  Q    Q    Q    E
e|----------------------|-------------------------|------------------------|
B|--/5------3-----------|-------------------------|------------------------|
G|-----------------5----|--L--4--L----2--0--------|------------------------|
D|----------------------|-------------------2~----|--L--2----L----L----L---|
A|----------------------|-------------------------|-----2----L----L----L---|
E|----------------------|-------------------------|-----0----L----L----L---|

       \1/  \1/  \1/  \1/       \1/  \1/  \1/  \1/       \1/  \1/
    E  Q    Q    Q    E      E  Q    Q    Q    E      E  Q    E   H
e|------------------------|------------------------|-----------------------||
B|------------------------|------------------------|-----------------------||
G|------------------------|------------------------|-----------------------||
D|--L--L----L----L----L---|--L--L----L----L----L---|--L--L----L---L--------||
A|--L--L----L----L----L---|--L--L----L----L----L---|--L--L----L---L--------||
E|--L--L----L----L----L---|--L--L----L----L----L---|--L--L----L---L--------||


Guitar #2:

Dave Murray


[Intro]

    W                   W                   W                   W
e|-------------------|-------------------|-------------------|-------------------|
B|-------------------|-------------------|-------------------|-------------------|
G|-------------------|-------------------|-------------------|-------------------|
D|-------------------|--2----------------|--L----------------|--L----------------|
A|-------------------|--2----------------|--L----------------|--L----------------|
E|-------------------|--0----------------|--L----------------|--L----------------|

    H.           Q       W                   W
e|--------------------|-------------------|-------------------|
B|--------------------|-------------------|-------------------|
G|--------------------|-------------------|-------------------|
D|--L------------2----|--L----------------|--L----------------|
A|--L------------2----|--L----------------|--L----------------|
E|--L------------0----|--L----------------|--L----------------|

    H        Q.     E     W                   H        Q.     E
e|---------------------|-------------------|---------------------|
B|---------------------|-------------------|---------------------|
G|------------------7--|--7----------------|--L--------L---------|
D|--L--------L------7--|--7----------------|--L--------L---------|
A|--L--------L------5--|--5----------------|--L--------L---------|
E|--L--------L---------|-------------------|---------------------|


[Verse Riff]

                  PM    PM PM    PM    PM    PM PM
    E          E  E  E  E  E  E  E     E  E  E  E  E    E   Q
e|----------------------------------|----------------------------|
B|----------------------------------|----------------------------|
G|--7s---------9-----9--------9-----|-----9--------9s--12--12----|
D|--7s---------9-----9--------9-----|-----9--------9s--12--12----|
A|--5s---------7--7--7--7--7--7--7--|--7--7--7--7--7s--10--10----|
E|----------------------------------|----------------------------|

            PM    PM PM    PM    PM    PM PM
     E   E  E  E  E  E  E  E     E  E  E  E  E  E  E  E
e|----------------------------|--------------------------|
B|----------------------------|--------------------------|
G|--12---7-----7--------7-----|-----7--------7--7--7--7--|
D|--12---7-----7--------7-----|-----7--------7--7--7--7--|
A|--10s--5--5--5--5--5--5--5--|--5--5--5--5--5--5--5--5--|
E|----------------------------|--------------------------|

           PM    PM PM    PM    PM    PM PM
    E   E  E  E  E  E  E  E     E  E  E  E  E    E   E   E
e|---------------------------|------------------------------|
B|---------------------------|------------------------------|
G|--7s--9-----9--------9-----|-----9--------9s--12--12--12--|
D|--7s--9-----9--------9-----|-----9--------9s--12--12--12--|
A|--5s--7--7--7--7--7--7--7--|--7--7--7--7--7s--10--10--10--|
E|---------------------------|------------------------------|

            PM       PM
     E   E  E   Q    E   Q        E   E   E   E   E   E   E   E
e|----------------------------|----------------------------------|
B|----------------------------|----------------------------------|
G|--12---------12-------12----|---L--12--12--12--12--12--12--12--|
D|--12---------12-------12----|---L--12--12--12--12--12--12--12--|
A|--10s--9--9---9----9---9----|---L--10--10--10--10--10--10--10--|
E|----------------------------|----------------------------------|

            PM      PM
     E   E  E  Q    E  Q       E  E  E  E  E  E  E  E
e|--------------------------|--------------------------|
B|--------------------------|--------------------------|
G|--12---5-----5-------5----|--L--5--5--5--5-----------|
D|--12---5--5--5----5--5----|--L--5--5--5--5--4--4--4--|
A|--10s--3--3--3----3--3----|--L--3--3--3--3--5--5--5--|
E|--------------------------|--------------------------|

          PM    PM PM    PM    PM    PM PM
    E  E  E  E  E  E  E  E     E  E  E  E  E    E   E   E
e|--------------------------|------------------------------|
B|--------------------------|------------------------------|
G|-----------9--------9-----|-----9--------9s--12--12--12--|
D|--4--5-----9--------9-----|-----9--------9s--12--12--12--|
A|--5--7--7--7--7--7--7--7--|--7--7--7--7--7s--10--10--10--|
E|--------------------------|------------------------------|

            PM    PM PM    PM    PM    PM PM
     E   E  E  E  E  E  E  E     E  E  E  E  E   E   E   E
e|----------------------------|-----------------------------|
B|----------------------------|-----------------------------|
G|--12---7-----7--------7-----|-----7--------7--12--12--12--|
D|--12---7-----7--------7-----|-----7--------7--12--12--12--|
A|--10s--5--5--5--5--5--5--5--|--5--5--5--5--5--10--10--10--|
E|----------------------------|-----------------------------|

            PM      PM
     E   E  E  Q    E  Q       H        E  E  E  E
e|--------------------------|-----------------------|
B|--------------------------|-----------------------|
G|--12---5-----5-------5----|--L--------L-----------|
D|--12---5--5--5----5--5----|--L--------L--4--4--4--|
A|--10s--3--3--3----3--3----|--L--------L--5--5--5--|
E|--------------------------|-----------------------|


[Verse Riff]

                  PM    PM PM    PM    PM    PM PM
    E          E  E  E  E  E  E  E     E  E  E  E  E    E   Q
e|----------------------------------|----------------------------|
B|----------------------------------|----------------------------|
G|-------------------9--------9-----|-----9--------9s--12--12----|
D|--4----------5-----9--------9-----|-----9--------9s--12--12----|
A|--5----------7--7--7--7--7--7--7--|--7--7--7--7--7s--10--10----|
E|----------------------------------|----------------------------|

            PM    PM PM    PM    PM    PM PM
     E   E  E  E  E  E  E  E     E  E  E  E  E  E  E  E
e|----------------------------|--------------------------|
B|----------------------------|--------------------------|
G|--12---7-----7--------7-----|-----7--------7--7--7--7--|
D|--12---7-----7--------7-----|-----7--------7--7--7--7--|
A|--10s--5--5--5--5--5--5--5--|--5--5--5--5--5--5--5--5--|
E|----------------------------|--------------------------|

           PM    PM PM    PM    PM    PM PM
    E   E  E  E  E  E  E  E     E  E  E  E  E    E   E   E
e|---------------------------|------------------------------|
B|---------------------------|------------------------------|
G|--7s--9-----9--------9-----|-----9--------9s--12--12--12--|
D|--7s--9-----9--------9-----|-----9--------9s--12--12--12--|
A|--5s--7--7--7--7--7--7--7--|--7--7--7--7--7s--10--10--10--|
E|---------------------------|------------------------------|

            PM       PM
     E   E  E   Q    E   Q        E   E   E   E   E   E   E   E
e|----------------------------|----------------------------------|
B|----------------------------|----------------------------------|
G|--12---------12-------12----|---L--12--12--12--12--12--12--12--|
D|--12---------12-------12----|---L--12--12--12--12--12--12--12--|
A|--10s--9--9---9----9---9----|---L--10--10--10--10--10--10--10--|
E|----------------------------|----------------------------------|

            PM      PM
     E   E  E  Q    E  Q       E  E  E  E  E  E  E  E
e|--------------------------|--------------------------|
B|--------------------------|--------------------------|
G|--12---5-----5-------5----|--L--5--5--5--5-----------|
D|--12---5--5--5----5--5----|--L--5--5--5--5--4--4--4--|
A|--10s--3--3--3----3--3----|--L--3--3--3--3--5--5--5--|
E|--------------------------|--------------------------|

          PM    PM PM    PM    PM    PM PM
    E  E  E  E  E  E  E  E     E  E  E  E  E    E   E   E
e|--------------------------|------------------------------|
B|--------------------------|------------------------------|
G|-----------9--------9-----|-----9--------9s--12--12--12--|
D|--4--5-----9--------9-----|-----9--------9s--12--12--12--|
A|--5--7--7--7--7--7--7--7--|--7--7--7--7--7s--10--10--10--|
E|--------------------------|------------------------------|

            PM    PM PM    PM    PM    PM PM
     E   E  E  E  E  E  E  E     E  E  E  E  E   E   E   E
e|----------------------------|-----------------------------|
B|----------------------------|-----------------------------|
G|--12---7-----7--------7-----|-----7--------7--12--12--12--|
D|--12---7-----7--------7-----|-----7--------7--12--12--12--|
A|--10s--5--5--5--5--5--5--5--|--5--5--5--5--5--10--10--10--|
E|----------------------------|-----------------------------|

                                                   [Chorus]

            PM      PM
     E   E  E  Q    E  Q       W                   W
e|--------------------------|-------------------|-------------------|
B|--------------------------|-------------------|-------------------|
G|--12---5-----5-------5----|--L----------------|-------------------|
D|--12---5--5--5----5--5----|--L----------------|--5----------------|
A|--10s--3--3--3----3--3----|--L----------------|--5----------------|
E|--------------------------|-------------------|--3----------------|

    H        H           W                   H        H
e|--------------------|-------------------|--------------------|
B|--------------------|-------------------|--------------------|
G|--5-----------------|--7----------------|--5-----------------|
D|--5--------7--------|--7----------------|--5--------7--------|
A|--3--------7--------|--5----------------|--3--------7--------|
E|-----------5--------|-------------------|-----------5--------|

    W                   W                   E  E  E  E  E  E  E  E
e|-------------------|-------------------|--3--3--3--3--3--3--3--3--|
B|-------------------|-------------------|--3--3--3--3--3--3--3--3--|
G|--9----------------|--7----------------|--------------------------|
D|--9----------------|--7----------------|--------------------------|
A|--7----------------|--5----------------|--------------------------|
E|-------------------|-------------------|--------------------------|

    E  E  E  E  E  E  E  E     W                   H        H
e|--3--3--3--3--3--3--3--3--|-------------------|--------------------|
B|--3--3--3--3--3--3--3--3--|-------------------|--------------------|
G|--------------------------|-------------------|--5-----------------|
D|--------------------------|--5----------------|--5--------7--------|
A|--------------------------|--5----------------|--3--------7--------|
E|--------------------------|--3----------------|-----------5--------|

    W                   H        H           W
e|-------------------|--------------------|-------------------|
B|-------------------|--------------------|-------------------|
G|--7----------------|--5-----------------|--9----------------|
D|--7----------------|--5--------7--------|--9----------------|
A|--5----------------|--3--------7--------|--7----------------|
E|-------------------|-----------5--------|-------------------|

    W                   E  E  E  E  E  E  E  E     E  E  E  E  E  E  E  E
e|-------------------|--3--3--3--3--3--3--3--3--|--3--3--3--3--3--3--3--3--|
B|-------------------|--3--3--3--3--3--3--3--3--|--3--3--3--3--3--3--3--3--|
G|--7----------------|--------------------------|--------------------------|
D|--7----------------|--------------------------|--------------------------|
A|--5----------------|--------------------------|--------------------------|
E|-------------------|--------------------------|--------------------------|


[Verse Riff]

                  PM    PM PM    PM    PM    PM PM
    E          E  E  E  E  E  E  E     E  E  E  E  E    E   Q
e|----------------------------------|----------------------------|
B|----------------------------------|----------------------------|
G|--7s---------9-----9--------9-----|-----9--------9s--12--12----|
D|--7s---------9-----9--------9-----|-----9--------9s--12--12----|
A|--5s---------7--7--7--7--7--7--7--|--7--7--7--7--7s--10--10----|
E|----------------------------------|----------------------------|

            PM    PM PM    PM    PM    PM PM
     E   E  E  E  E  E  E  E     E  E  E  E  E  E  E  E
e|----------------------------|--------------------------|
B|----------------------------|--------------------------|
G|--12---7-----7--------7-----|-----7--------7--7--7--7--|
D|--12---7-----7--------7-----|-----7--------7--7--7--7--|
A|--10s--5--5--5--5--5--5--5--|--5--5--5--5--5--5--5--5--|
E|----------------------------|--------------------------|

           PM    PM PM    PM    PM    PM PM
    E   E  E  E  E  E  E  E     E  E  E  E  E    E   E   E
e|---------------------------|------------------------------|
B|---------------------------|------------------------------|
G|--7s--9-----9--------9-----|-----9--------9s--12--12--12--|
D|--7s--9-----9--------9-----|-----9--------9s--12--12--12--|
A|--5s--7--7--7--7--7--7--7--|--7--7--7--7--7s--10--10--10--|
E|---------------------------|------------------------------|

            PM       PM
     E   E  E   Q    E   Q        E   E   E   E   E   E   E   E
e|----------------------------|----------------------------------|
B|----------------------------|----------------------------------|
G|--12---------12-------12----|---L--12--12--12--12--12--12--12--|
D|--12---------12-------12----|---L--12--12--12--12--12--12--12--|
A|--10s--9--9---9----9---9----|---L--10--10--10--10--10--10--10--|
E|----------------------------|----------------------------------|

            PM      PM
     E   E  E  Q    E  Q       E  E  E  E  E  E  E  E
e|--------------------------|--------------------------|
B|--------------------------|--------------------------|
G|--12---5-----5-------5----|--L--5--5--5--5-----------|
D|--12---5--5--5----5--5----|--L--5--5--5--5--4--4--4--|
A|--10s--3--3--3----3--3----|--L--3--3--3--3--5--5--5--|
E|--------------------------|--------------------------|

          PM    PM PM    PM    PM    PM PM
    E  E  E  E  E  E  E  E     E  E  E  E  E    E   E   E
e|--------------------------|------------------------------|
B|--------------------------|------------------------------|
G|-----------9--------9-----|-----9--------9s--12--12--12--|
D|--4--5-----9--------9-----|-----9--------9s--12--12--12--|
A|--5--7--7--7--7--7--7--7--|--7--7--7--7--7s--10--10--10--|
E|--------------------------|------------------------------|

            PM    PM PM    PM    PM    PM PM
     E   E  E  E  E  E  E  E     E  E  E  E  E   E   E   E
e|----------------------------|-----------------------------|
B|----------------------------|-----------------------------|
G|--12---7-----7--------7-----|-----7--------7--12--12--12--|
D|--12---7-----7--------7-----|-----7--------7--12--12--12--|
A|--10s--5--5--5--5--5--5--5--|--5--5--5--5--5--10--10--10--|
E|----------------------------|-----------------------------|


                                                  [Chorus]
            PM      PM
     E   E  E  Q    E  Q       W                   W
e|--------------------------|-------------------|-------------------|
B|--------------------------|-------------------|-------------------|
G|--12---5-----5-------5----|--L----------------|-------------------|
D|--12---5--5--5----5--5----|--L----------------|--5----------------|
A|--10s--3--3--3----3--3----|--L----------------|--5----------------|
E|--------------------------|-------------------|--3----------------|

    H        H           W                   H        H
e|--------------------|-------------------|--------------------|
B|--------------------|-------------------|--------------------|
G|--5-----------------|--7----------------|--5-----------------|
D|--5--------7--------|--7----------------|--5--------7--------|
A|--3--------7--------|--5----------------|--3--------7--------|
E|-----------5--------|-------------------|-----------5--------|

    W                   W                   E  E  E  E  E  E  E  E
e|-------------------|-------------------|--3--3--3--3--3--3--3--3--|
B|-------------------|-------------------|--3--3--3--3--3--3--3--3--|
G|--9----------------|--7----------------|--------------------------|
D|--9----------------|--7----------------|--------------------------|
A|--7----------------|--5----------------|--------------------------|
E|-------------------|-------------------|--------------------------|

    E  E  E  E  E  E  E  E     W                   H        H
e|--3--3--3--3--3--3--3--3--|-------------------|--------------------|
B|--3--3--3--3--3--3--3--3--|-------------------|--------------------|
G|--------------------------|-------------------|--5-----------------|
D|--------------------------|--5----------------|--5--------7--------|
A|--------------------------|--5----------------|--3--------7--------|
E|--------------------------|--3----------------|-----------5--------|

    W                   H        H           W
e|-------------------|--------------------|-------------------|
B|-------------------|--------------------|-------------------|
G|--7----------------|--5-----------------|--9----------------|
D|--7----------------|--5--------7--------|--9----------------|
A|--5----------------|--3--------7--------|--7----------------|
E|-------------------|-----------5--------|-------------------|

    W                   E  E  E  E  E  E  E  E     E  E  E  E  E  E  E  E
e|-------------------|--3--3--3--3--3--3--3--3--|--3--3--3--3--3--3--3--3--|
B|-------------------|--3--3--3--3--3--3--3--3--|--3--3--3--3--3--3--3--3--|
G|--7----------------|--------------------------|--------------------------|
D|--7----------------|--------------------------|--------------------------|
A|--5----------------|--------------------------|--------------------------|
E|-------------------|--------------------------|--------------------------|


[Riff A]

    W                   W                   W
e|-------------------|-------------------|-------------------|
B|-------------------|-------------------|-------------------|
G|-------------------|-------------------|-------------------|
D|--2----------------|--L----------------|--L----------------|
A|--2----------------|--L----------------|--L----------------|
E|--0----------------|--L----------------|--L----------------|

    H.           Q       W                   W
e|--------------------|-------------------|-------------------|
B|--------------------|-------------------|-------------------|
G|--------------------|-------------------|-------------------|
D|--L------------2----|--L----------------|--L----------------|
A|--L------------2----|--L----------------|--L----------------|
E|--L------------0----|--L----------------|--L----------------|

    W                   W                   W                   W
e|-------------------|-------------------|-------------------|-------------------|
B|-------------------|-------------------|-------------------|-------------------|
G|-------------------|-------------------|--7----------------|--L----------------|
D|--L----------------|--L----------------|--7----------------|--L----------------|
A|--L----------------|--L----------------|--5----------------|--L----------------|
E|--L----------------|--L----------------|-------------------|-------------------|

             PM PM PM PM    PM PM PM PM PM PM PM
    H        E  E  E  E     E  E  E  E  E  E  Q
e|-----------------------|-------------------------|
B|-----------------------|-------------------------|
G|--5--------------------|-------------------------|
D|--5--------5--5--5--5--|--5--5--5--5--7--7--7----|
A|--3--------3--3--3--3--|--3--3--3--3--5--5--5----|
E|-----------------------|-------------------------|


[Riff B]

              PM    PM PM    PM    PM    PM PM    PM    PM
    E      E  E  E  E  E  E  E     E  E  E  E  E  E  E  E
e|------------------------------|--------------------------|
B|------------------------------|--------------------------|
G|--7s-----9-----9--------9-----|-----9--------9-----9-----|
D|--7s-----9--9--9--9--9--9--9--|--9--9--9--9--9--9--9--9--|
A|--5s-----7--7--7--7--7--7--7--|--7--7--7--7--7--7--7--7--|
E|------------------------------|--------------------------|

           PM    PM PM    PM    PM    PM PM    PM    PM
    E   E  E  E  E  E  E  E     E  E  E  E  E  E  E  E
e|---------------------------|--------------------------|
B|---------------------------|--------------------------|
G|--7s--9-----9--------9-----|-----9--------9-----9-----|
D|--7s--9--9--9--9--9--9--9--|--9--9--9--9--9--9--9--9--|
A|--5s--7--7--7--7--7--7--7--|--7--7--7--7--7--7--7--7--|
E|---------------------------|--------------------------|

       PM PM    PM PM    PM    PM    PM PM    PM    PM
    E  E  E  E  E  E  E  E     E  E  E  E  E  E  E  E
e|--------------------------|--------------------------|
B|--------------------------|--------------------------|
G|--7--------7--------7-----|-----7--------7-----7-----|
D|--7--7--7--7--7--7--7--7--|--7--7--7--7--7--7--7--7--|
A|--5--5--5--5--5--5--5--5--|--5--5--5--5--5--5--5--5--|
E|--------------------------|--------------------------|

       PM PM    PM PM    PM    PM    PM PM    PM
    E  E  E  E  E  E  E  E     E  E  E  E  E  E  E  E
e|--------------------------|--------------------------|
B|--------------------------|--------------------------|
G|--5--------5--------5-----|-----5--------5-----7--7--|
D|--5--5--5--5--5--5--5--5--|--5--5--5--5--5--5--7--7--|
A|--3--3--3--3--3--3--3--3--|--3--3--3--3--3--3--5--5--|
E|--------------------------|--------------------------|

           PM    PM PM    PM    PM    PM PM    PM    PM
    E   E  E  E  E  E  E  E     E  E  E  E  E  E  E  E
e|---------------------------|--------------------------|
B|---------------------------|--------------------------|
G|--7s--9-----9--------9-----|-----9--------9-----9-----|
D|--7s--9--9--9--9--9--9--9--|--9--9--9--9--9--9--9--9--|
A|--5s--7--7--7--7--7--7--7--|--7--7--7--7--7--7--7--7--|
E|---------------------------|--------------------------|

           PM    PM PM    PM    PM    PM PM    PM    PM
    E   E  E  E  E  E  E  E     E  E  E  E  E  E  E  E
e|---------------------------|--------------------------|
B|---------------------------|--------------------------|
G|--7s--9-----9--------9-----|-----9--------9-----9-----|
D|--7s--9--9--9--9--9--9--9--|--9--9--9--9--9--9--9--9--|
A|--5s--7--7--7--7--7--7--7--|--7--7--7--7--7--7--7--7--|
E|---------------------------|--------------------------|

       PM PM    PM PM    PM    PM    PM PM    PM    PM
    E  E  E  E  E  E  E  E     E  E  E  E  E  E  E  E
e|--------------------------|--------------------------|
B|--------------------------|--------------------------|
G|--7--------7--------7-----|-----7--------7-----7-----|
D|--7--7--7--7--7--7--7--7--|--7--7--7--7--7--7--7--7--|
A|--5--5--5--5--5--5--5--5--|--5--5--5--5--5--5--5--5--|
E|--------------------------|--------------------------|

       PM PM    PM PM    PM    PM    PM PM    PM
    E  E  E  E  E  E  E  E     E  E  E  E  E  E  E  E
e|--------------------------|--------------------------|
B|--------------------------|--------------------------|
G|--5--------5--------5-----|-----5--------5-----7--7--|
D|--5--5--5--5--5--5--5--5--|--5--5--5--5--5--5--7--7--|
A|--3--3--3--3--3--3--3--3--|--3--3--3--3--3--3--5--5--|
E|--------------------------|--------------------------|


[Solo Adrian Smith]

                         PM    PM PM    PM    PM    PM PM    PM    PM
    E                 E  E  E  E  E  E  E     E  E  E  E  E  E  E  E
e|-----------------------------------------|--------------------------|
B|-----------------------------------------|--------------------------|
G|--7s----------------9-----9--------9-----|-----9--------9-----9-----|
D|--7s----------------9--9--9--9--9--9--9--|--9--9--9--9--9--9--9--9--|
A|--5s----------------7--7--7--7--7--7--7--|--7--7--7--7--7--7--7--7--|
E|-----------------------------------------|--------------------------|

           PM    PM PM    PM    PM    PM PM    PM    PM
    E   E  E  E  E  E  E  E     E  E  E  E  E  E  E  E
e|---------------------------|--------------------------|
B|---------------------------|--------------------------|
G|--7s--9-----9--------9-----|-----9--------9-----9-----|
D|--7s--9--9--9--9--9--9--9--|--9--9--9--9--9--9--9--9--|
A|--5s--7--7--7--7--7--7--7--|--7--7--7--7--7--7--7--7--|
E|---------------------------|--------------------------|

       PM PM    PM PM    PM    PM    PM PM    PM    PM
    E  E  E  E  E  E  E  E     E  E  E  E  E  E  E  E
e|--------------------------|--------------------------|
B|--------------------------|--------------------------|
G|--7--------7--------7-----|-----7--------7-----7-----|
D|--7--7--7--7--7--7--7--7--|--7--7--7--7--7--7--7--7--|
A|--5--5--5--5--5--5--5--5--|--5--5--5--5--5--5--5--5--|
E|--------------------------|--------------------------|

       PM PM    PM PM    PM    PM    PM PM    PM
    E  E  E  E  E  E  E  E     E  E  E  E  E  E  E  E
e|--------------------------|--------------------------|
B|--------------------------|--------------------------|
G|--5--------5--------5-----|-----5--------5-----7--7--|
D|--5--5--5--5--5--5--5--5--|--5--5--5--5--5--5--7--7--|
A|--3--3--3--3--3--3--3--3--|--3--3--3--3--3--3--5--5--|
E|--------------------------|--------------------------|

           PM    PM PM    PM    PM    PM PM    PM    PM
    E   E  E  E  E  E  E  E     E  E  E  E  E  E  E  E
e|---------------------------|--------------------------|
B|---------------------------|--------------------------|
G|--7s--9-----9--------9-----|-----9--------9-----9-----|
D|--7s--9--9--9--9--9--9--9--|--9--9--9--9--9--9--9--9--|
A|--5s--7--7--7--7--7--7--7--|--7--7--7--7--7--7--7--7--|
E|---------------------------|--------------------------|

           PM    PM PM    PM    PM    PM PM    PM    PM
    E   E  E  E  E  E  E  E     E  E  E  E  E  E  E  E
e|---------------------------|--------------------------|
B|---------------------------|--------------------------|
G|--7s--9-----9--------9-----|-----9--------9-----9-----|
D|--7s--9--9--9--9--9--9--9--|--9--9--9--9--9--9--9--9--|
A|--5s--7--7--7--7--7--7--7--|--7--7--7--7--7--7--7--7--|
E|---------------------------|--------------------------|

       PM PM    PM PM    PM    PM    PM PM    PM    PM
    E  E  E  E  E  E  E  E     E  E  E  E  E  E  E  E
e|--------------------------|--------------------------|
B|--------------------------|--------------------------|
G|--7--------7--------7-----|-----7--------7-----7-----|
D|--7--7--7--7--7--7--7--7--|--7--7--7--7--7--7--7--7--|
A|--5--5--5--5--5--5--5--5--|--5--5--5--5--5--5--5--5--|
E|--------------------------|--------------------------|

                                                          [Chorus]

       PM PM    PM PM    PM    PM    PM PM    PM
    E  E  E  E  E  E  E  E     E  E  E  E  E  E  E  E     W
e|--------------------------|--------------------------|-------------------|
B|--------------------------|--------------------------|-------------------|
G|--5--------5--------5-----|-----5--------5-----7--7--|-------------------|
D|--5--5--5--5--5--5--5--5--|--5--5--5--5--5--5--7--7--|--5----------------|
A|--3--3--3--3--3--3--3--3--|--3--3--3--3--3--3--5--5--|--5----------------|
E|--------------------------|--------------------------|--3----------------|

    H        H           W                   H        H
e|--------------------|-------------------|--------------------|
B|--------------------|-------------------|--------------------|
G|--5-----------------|--7----------------|--5-----------------|
D|--5--------7--------|--7----------------|--5--------7--------|
A|--3--------7--------|--5----------------|--3--------7--------|
E|-----------5--------|-------------------|-----------5--------|

    W                   W                   E  E  E  E  E  E  E  E
e|-------------------|-------------------|--3--3--3--3--3--3--3--3--|
B|-------------------|-------------------|--3--3--3--3--3--3--3--3--|
G|--9----------------|--7----------------|--------------------------|
D|--9----------------|--7----------------|--------------------------|
A|--7----------------|--5----------------|--------------------------|
E|-------------------|-------------------|--------------------------|

    E  E  E  E  E  E  E  E     W                   H        H
e|--3--3--3--3--3--3--3--3--|-------------------|--------------------|
B|--3--3--3--3--3--3--3--3--|-------------------|--------------------|
G|--------------------------|-------------------|--5-----------------|
D|--------------------------|--5----------------|--5--------7--------|
A|--------------------------|--5----------------|--3--------7--------|
E|--------------------------|--3----------------|-----------5--------|

    W                   H        H           W
e|-------------------|--------------------|-------------------|
B|-------------------|--------------------|-------------------|
G|--7----------------|--5-----------------|--9----------------|
D|--7----------------|--5--------7--------|--9----------------|
A|--5----------------|--3--------7--------|--7----------------|
E|-------------------|-----------5--------|-------------------|

    W                   E  E  E  E  E  E  E  E     E  E  E  E  E  E  E  E
e|-------------------|--3--3--3--3--3--3--3--3--|--3--3--3--3--3--3--3--3--|
B|-------------------|--3--3--3--3--3--3--3--3--|--3--3--3--3--3--3--3--3--|
G|--7----------------|--------------------------|--------------------------|
D|--7----------------|--------------------------|--------------------------|
A|--5----------------|--------------------------|--------------------------|
E|-------------------|--------------------------|--------------------------|

    W                   H        H           W
e|-------------------|--------------------|-------------------|
B|-------------------|--------------------|-------------------|
G|-------------------|--5-----------------|--7----------------|
D|--5----------------|--5--------7--------|--7----------------|
A|--5----------------|--3--------7--------|--5----------------|
E|--3----------------|-----------5--------|-------------------|

    H        H           W                   W
e|--------------------|-------------------|-------------------|
B|--------------------|-------------------|-------------------|
G|--5-----------------|--9----------------|--7----------------|
D|--5--------7--------|--9----------------|--7----------------|
A|--3--------7--------|--7----------------|--5----------------|
E|-----------5--------|-------------------|-------------------|

    E  E  E  E  E  E  E  E     E  E  E  E  E  E  E  E     W
e|--3--3--3--3--3--3--3--3--|--3--3--3--3--3--3--3--3--|-------------------|
B|--3--3--3--3--3--3--3--3--|--3--3--3--3--3--3--3--3--|-------------------|
G|--------------------------|--------------------------|-------------------|
D|--------------------------|--------------------------|--5----------------|
A|--------------------------|--------------------------|--5----------------|
E|--------------------------|--------------------------|--3----------------|

    H        H           W                   H        H
e|--------------------|-------------------|--------------------|
B|--------------------|-------------------|--------------------|
G|--5-----------------|--7----------------|--5-----------------|
D|--5--------7--------|--7----------------|--5--------7--------|
A|--3--------7--------|--5----------------|--3--------7--------|
E|-----------5--------|-------------------|-----------5--------|

    W                   W                   E  E  E  E  E  E  E  E
e|-------------------|-------------------|--3--3--3--3--3--3--3--3--|
B|-------------------|-------------------|--3--3--3--3--3--3--3--3--|
G|--9----------------|--7----------------|--------------------------|
D|--9----------------|--7----------------|--------------------------|
A|--7----------------|--5----------------|--------------------------|
E|-------------------|-------------------|--------------------------|


                             [Riff A]

    E  E  E  E  E  E  E  E     W                   W
e|--3--3--3--3--3--3--3--3--|-------------------|-------------------|
B|--3--3--3--3--3--3--3--3--|-------------------|-------------------|
G|--------------------------|-------------------|-------------------|
D|--------------------------|--2----------------|--L----------------|
A|--------------------------|--2----------------|--L----------------|
E|--------------------------|--0----------------|--L----------------|

    W                   H.           Q       W
e|-------------------|--------------------|-------------------|
B|-------------------|--------------------|-------------------|
G|-------------------|--------------------|-------------------|
D|--L----------------|--L------------2----|--L----------------|
A|--L----------------|--L------------2----|--L----------------|
E|--L----------------|--L------------0----|--L----------------|

    W                   W                   W                   W
e|-------------------|-------------------|-------------------|-------------------|
B|-------------------|-------------------|-------------------|-------------------|
G|-------------------|-------------------|-------------------|--7----------------|
D|--L----------------|--L----------------|--L----------------|--7----------------|
A|--L----------------|--L----------------|--L----------------|--5----------------|
E|--L----------------|--L----------------|--L----------------|-------------------|


                      [Outro]

                        PM    PM PM PM PM PM PM PM    PM PM PM PM
    W                   E     E  E  E  E  E  E  E     E  E  E  E  E  E  Q
e|-------------------|-----------------------------|-------------------------|
B|-------------------|-----------------------------|-------------------------|
G|--L----------------|-----------------------------|-------------------------|
D|--L----------------|-----------------------------|-------------------------|
A|--L----------------|--3-----3--3--2--2--2--0--0--|--0----------------------|
E|-------------------|-----------------------------|-----3--3--3--5--3--0----|

    E  E  H.              W                   W
e|---------------------|-------------------|-------------------|
B|---------------------|-------------------|-------------------|
G|---------------------|-------------------|-------------------|
D|-----2--L------------|--L----------------|--L----------------|
A|-----2--L------------|--L----------------|--L----------------|
E|--L--0--L------------|--L----------------|--L----------------|

    W
e|-------------------||
B|-------------------||
G|-------------------||
D|--L----------------||
A|--L----------------||
E|--L----------------||


Guitar #3:

Janick Gers


        [Intro]


                         >          >          >
    W                    E  S S S S E  S S S S E  S S
e|-------------------|--12--0-0-0-0-7--0-0-0-0-8--0-0-|
B|-------------------|--------------------------------|
G|-------------------|--------------------------------|
D|-------------------|--------------------------------|
A|-------------------|--------------------------------|
E|-------------------|--------------------------------|

        >          >      >         >          >          >
    S S E  S S S S E  S S E  S S    E  S S S S E  S S S S E  S S
e|--0-0-5--0-0-0-0-7--0-0-3--0-0-|--5--0-0-0-0-2--0-0-0-0-3--0-0-|
B|-------------------------------|-------------------------------|
G|-------------------------------|-------------------------------|
D|-------------------------------|-------------------------------|
A|-------------------------------|-------------------------------|
E|-------------------------------|-------------------------------|

        >          >      >          >          >          >
    S S E  S S S S E  S S E  S S     E  S S S S E  S S S S E  S S
e|--0-0-5--0-0-0-0-2--0-0-3--0-0-|--12--0-0-0-0-7--0-0-0-0-8--0-0-|
B|-------------------------------|--------------------------------|
G|-------------------------------|--------------------------------|
D|-------------------------------|--------------------------------|
A|-------------------------------|--------------------------------|
E|-------------------------------|--------------------------------|

        >          >      >         >          >          >
    S S E  S S S S E  S S E  S S    E  S S S S E  S S S S E  E
e|--0-0-5--0-0-0-0-7--0-0-3--0-0-|--5--0-0-0-0-2--0-0-0-0-3-----|
B|-------------------------------|---------------------------3--|
G|-------------------------------|---------------------------2--|
D|-------------------------------|---------------------------0--|
A|-------------------------------|------------------------------|
E|-------------------------------|------------------------------|


                                             [Verse] Riff

                                                            PM    PM PM    PM
    W                   H        Q.     E     E          E  E  E  E  E  E  E
e|-------------------|---------------------|----------------------------------|
B|--3----------------|--L--------L---------|----------------------------------|
G|--2----------------|--L--------L---------|----------------------------------|
D|--0----------------|--L--------L---------|--7s---------9-----9--------9-----|
A|-------------------|---------------------|--5s---------7-----7--------7-----|
E|-------------------|---------------------|----------------0-----0--0-----0--|

    PM    PM PM                          PM    PM PM    PM
    E  E  E  E  E    E   Q        E   E  E  E  E  E  E  E
e|----------------------------|----------------------------|
B|----------------------------|----------------------------|
G|----------------------------|----------------------------|
D|-----9--------9s--12--12----|--12---7-----7--------7-----|
A|-----7--------7s--10--10----|--10s--5--5--5--5--5--5--5--|
E|--0-----0--0----------------|----------------------------|

    PM    PM PM                       PM    PM PM    PM
    E  E  E  E  E  E  E  E     E   E  E  E  E  E  E  E
e|--------------------------|---------------------------|
B|--------------------------|---------------------------|
G|--------------------------|---------------------------|
D|-----7--------7--7--7--7--|--7s--9-----9--------9-----|
A|--5--5--5--5--5--5--5--5--|--5s--7-----7--------7-----|
E|--------------------------|---------0-----0--0-----0--|

    PM    PM PM                            PM       PM
    E  E  E  E  E    E   E   E      E   E  E   Q    E   Q
e|------------------------------|----------------------------|
B|------------------------------|----------------------------|
G|------------------------------|----------------------------|
D|-----9--------9s--12--12--12--|--12---------12-------12----|
A|-----7--------7s--10--10--10--|--10s--9--9---9----9---9----|
E|--0-----0--0------------------|----------------------------|

                                               PM      PM
     E   E   E   E   E   E   E   E      E   E  E  Q    E  Q
e|----------------------------------|--------------------------|
B|----------------------------------|--------------------------|
G|----------------------------------|-------------5-------5----|
D|---L--12--12--12--12--12--12--12--|--12---5--5--5----5--5----|
A|---L--10--10--10--10--10--10--10--|--10s--3--3--3----3--3----|
E|----------------------------------|--------------------------|

                                     PM    PM PM    PM
    E  E  E  E  E  E  E  E     E  E  E  E  E  E  E  E
e|--------------------------|--------------------------|
B|--------------------------|--------------------------|
G|--L-----------------------|--------------------------|
D|--L--5--5--5--5--4--4--4--|--4--5-----9--------9-----|
A|--L--3--3--3--3--5--5--5--|--5--7-----7--------7-----|
E|--------------------------|--------0-----0--0-----0--|

    PM    PM PM                            PM    PM PM    PM
    E  E  E  E  E    E   E   E      E   E  E  E  E  E  E  E
e|------------------------------|----------------------------|
B|------------------------------|----------------------------|
G|------------------------------|----------------------------|
D|-----9--------9s--12--12--12--|--12---7-----7--------7-----|
A|-----7--------7s--10--10--10--|--10s--5--5--5--5--5--5--5--|
E|--0-----0--0------------------|----------------------------|

    PM    PM PM                           PM      PM
    E  E  E  E  E   E   E   E      E   E  E  Q    E  Q
e|-----------------------------|--------------------------|
B|-----------------------------|--------------------------|
G|-----------------------------|-------------5-------5----|
D|-----7--------7--12--12--12--|--12---5--5--5----5--5----|
A|--5--5--5--5--5--10--10--10--|--10s--3--3--3----3--3----|
E|-----------------------------|--------------------------|


                          [Verse Riff]

                                          PM    PM PM    PM
    H        E  E  E  E     E          E  E  E  E  E  E  E
e|-----------------------|----------------------------------|
B|-----------------------|----------------------------------|
G|--L--------L-----------|----------------------------------|
D|--L--------L--4--4--4--|--4----------5-----9--------9-----|
A|--L--------L--5--5--5--|--5----------7-----7--------7-----|
E|-----------------------|----------------0-----0--0-----0--|

    PM    PM PM                          PM    PM PM    PM
    E  E  E  E  E    E   Q        E   E  E  E  E  E  E  E
e|----------------------------|----------------------------|
B|----------------------------|----------------------------|
G|----------------------------|----------------------------|
D|-----9--------9s--12--12----|--12---7-----7--------7-----|
A|-----7--------7s--10--10----|--10s--5--5--5--5--5--5--5--|
E|--0-----0--0----------------|----------------------------|

    PM    PM PM                       PM    PM PM    PM
    E  E  E  E  E  E  E  E     E   E  E  E  E  E  E  E
e|--------------------------|---------------------------|
B|--------------------------|---------------------------|
G|--------------------------|---------------------------|
D|-----7--------7--7--7--7--|--7s--9-----9--------9-----|
A|--5--5--5--5--5--5--5--5--|--5s--7-----7--------7-----|
E|--------------------------|---------0-----0--0-----0--|

    PM    PM PM                            PM       PM
    E  E  E  E  E    E   E   E      E   E  E   Q    E   Q
e|------------------------------|----------------------------|
B|------------------------------|----------------------------|
G|------------------------------|----------------------------|
D|-----9--------9s--12--12--12--|--12---------12-------12----|
A|-----7--------7s--10--10--10--|--10s--9--9---9----9---9----|
E|--0-----0--0------------------|----------------------------|

                                               PM      PM
     E   E   E   E   E   E   E   E      E   E  E  Q    E  Q
e|----------------------------------|--------------------------|
B|----------------------------------|--------------------------|
G|----------------------------------|-------------5-------5----|
D|---L--12--12--12--12--12--12--12--|--12---5--5--5----5--5----|
A|---L--10--10--10--10--10--10--10--|--10s--3--3--3----3--3----|
E|----------------------------------|--------------------------|

                                     PM    PM PM    PM
    E  E  E  E  E  E  E  E     E  E  E  E  E  E  E  E
e|--------------------------|--------------------------|
B|--------------------------|--------------------------|
G|--L-----------------------|--------------------------|
D|--L--5--5--5--5--4--4--4--|--4--5-----9--------9-----|
A|--L--3--3--3--3--5--5--5--|--5--7-----7--------7-----|
E|--------------------------|--------0-----0--0-----0--|

    PM    PM PM                            PM    PM PM    PM
    E  E  E  E  E    E   E   E      E   E  E  E  E  E  E  E
e|------------------------------|----------------------------|
B|------------------------------|----------------------------|
G|------------------------------|----------------------------|
D|-----9--------9s--12--12--12--|--12---7-----7--------7-----|
A|-----7--------7s--10--10--10--|--10s--5--5--5--5--5--5--5--|
E|--0-----0--0------------------|----------------------------|

    PM    PM PM                           PM      PM
    E  E  E  E  E   E   E   E      E   E  E  Q    E  Q       W
e|-----------------------------|--------------------------|-------------------|
B|-----------------------------|--------------------------|-------------------|
G|-----------------------------|-------------5-------5----|--L----------------|
D|-----7--------7--12--12--12--|--12---5--5--5----5--5----|--L----------------|
A|--5--5--5--5--5--10--10--10--|--10s--3--3--3----3--3----|--L----------------|
E|-----------------------------|--------------------------|-------------------|


    [Chorus]

    W                   H        H           W
e|--3----------------|--------------------|-------------------|
B|--3----------------|--------------------|-------------------|
G|--0----------------|--5-----------------|--7----------------|
D|--0----------------|--5--------7--------|--7----------------|
A|--x----------------|--3--------7--------|--5----------------|
E|--3----------------|-----------5--------|-------------------|

    H        H           W                   W
e|--------------------|-------------------|-------------------|
B|--------------------|-------------------|-------------------|
G|--5-----------------|--9----------------|--7----------------|
D|--5--------7--------|--9----------------|--7----------------|
A|--3--------7--------|--7----------------|--5----------------|
E|-----------5--------|-------------------|-------------------|

    W                   W                   W
e|--3----------------|--L----------------|--3----------------|
B|--3----------------|--L----------------|--3----------------|
G|--0----------------|--L----------------|--0----------------|
D|--x----------------|--L----------------|--0----------------|
A|--3----------------|--L----------------|--x----------------|
E|-------------------|-------------------|--3----------------|

    H        H           W                   H        H
e|--------------------|-------------------|--------------------|
B|--------------------|-------------------|--------------------|
G|--5-----------------|--7----------------|--5-----------------|
D|--5--------7--------|--7----------------|--5--------7--------|
A|--3--------7--------|--5----------------|--3--------7--------|
E|-----------5--------|-------------------|-----------5--------|

    W                   W                   W                   W
e|-------------------|-------------------|--3----------------|--L----------------|
B|-------------------|-------------------|--3----------------|--L----------------|
G|--9----------------|--7----------------|--0----------------|--L----------------|
D|--9----------------|--7----------------|--x----------------|--L----------------|
A|--7----------------|--5----------------|--3----------------|--L----------------|
E|-------------------|-------------------|-------------------|-------------------|


[Verse Riff]

                  PM    PM PM    PM    PM    PM PM
    E          E  E  E  E  E  E  E     E  E  E  E  E    E   Q
e|----------------------------------|----------------------------|
B|----------------------------------|----------------------------|
G|----------------------------------|----------------------------|
D|--7s---------9-----9--------9-----|-----9--------9s--12--12----|
A|--5s---------7-----7--------7-----|-----7--------7s--10--10----|
E|----------------0-----0--0-----0--|--0-----0--0----------------|

            PM    PM PM    PM    PM    PM PM
     E   E  E  E  E  E  E  E     E  E  E  E  E  E  E  E
e|----------------------------|--------------------------|
B|----------------------------|--------------------------|
G|----------------------------|--------------------------|
D|--12---7-----7--------7-----|-----7--------7--7--7--7--|
A|--10s--5--5--5--5--5--5--5--|--5--5--5--5--5--5--5--5--|
E|----------------------------|--------------------------|

           PM    PM PM    PM    PM    PM PM
    E   E  E  E  E  E  E  E     E  E  E  E  E    E   E   E
e|---------------------------|------------------------------|
B|---------------------------|------------------------------|
G|---------------------------|------------------------------|
D|--7s--9-----9--------9-----|-----9--------9s--12--12--12--|
A|--5s--7-----7--------7-----|-----7--------7s--10--10--10--|
E|---------0-----0--0-----0--|--0-----0--0------------------|

            PM       PM
     E   E  E   Q    E   Q        E   E   E   E   E   E   E   E
e|----------------------------|----------------------------------|
B|----------------------------|----------------------------------|
G|----------------------------|----------------------------------|
D|--12---------12-------12----|---L--12--12--12--12--12--12--12--|
A|--10s--9--9---9----9---9----|---L--10--10--10--10--10--10--10--|
E|----------------------------|----------------------------------|

            PM      PM
     E   E  E  Q    E  Q       E  E  E  E  E  E  E  E
e|--------------------------|--------------------------|
B|--------------------------|--------------------------|
G|-------------5-------5----|--L-----------------------|
D|--12---5--5--5----5--5----|--L--5--5--5--5--4--4--4--|
A|--10s--3--3--3----3--3----|--L--3--3--3--3--5--5--5--|
E|--------------------------|--------------------------|

          PM    PM PM    PM    PM    PM PM
    E  E  E  E  E  E  E  E     E  E  E  E  E    E   E   E
e|--------------------------|------------------------------|
B|--------------------------|------------------------------|
G|--------------------------|------------------------------|
D|--4--5-----9--------9-----|-----9--------9s--12--12--12--|
A|--5--7-----7--------7-----|-----7--------7s--10--10--10--|
E|--------0-----0--0-----0--|--0-----0--0------------------|

            PM    PM PM    PM    PM    PM PM
     E   E  E  E  E  E  E  E     E  E  E  E  E   E   E   E
e|----------------------------|-----------------------------|
B|----------------------------|-----------------------------|
G|----------------------------|-----------------------------|
D|--12---7-----7--------7-----|-----7--------7--12--12--12--|
A|--10s--5--5--5--5--5--5--5--|--5--5--5--5--5--10--10--10--|
E|----------------------------|-----------------------------|


                                                  [Chorus]
            PM      PM
     E   E  E  Q    E  Q       W                   W
e|--------------------------|-------------------|--3----------------|
B|--------------------------|-------------------|--3----------------|
G|-------------5-------5----|--L----------------|--0----------------|
D|--12---5--5--5----5--5----|--L----------------|--0----------------|
A|--10s--3--3--3----3--3----|--L----------------|--x----------------|
E|--------------------------|-------------------|--3----------------|

    H        H           W                   H        H
e|--------------------|-------------------|--------------------|
B|--------------------|-------------------|--------------------|
G|--5-----------------|--7----------------|--5-----------------|
D|--5--------7--------|--7----------------|--5--------7--------|
A|--3--------7--------|--5----------------|--3--------7--------|
E|-----------5--------|-------------------|-----------5--------|

    W                   W                   W                   W
e|-------------------|-------------------|--3----------------|--L----------------|
B|-------------------|-------------------|--3----------------|--L----------------|
G|--9----------------|--7----------------|--0----------------|--L----------------|
D|--9----------------|--7----------------|--x----------------|--L----------------|
A|--7----------------|--5----------------|--3----------------|--L----------------|
E|-------------------|-------------------|-------------------|-------------------|

    W                   H        H           W
e|--3----------------|--------------------|-------------------|
B|--3----------------|--------------------|-------------------|
G|--0----------------|--5-----------------|--7----------------|
D|--0----------------|--5--------7--------|--7----------------|
A|--x----------------|--3--------7--------|--5----------------|
E|--3----------------|-----------5--------|-------------------|

    H        H           W                   W
e|--------------------|-------------------|-------------------|
B|--------------------|-------------------|-------------------|
G|--5-----------------|--9----------------|--7----------------|
D|--5--------7--------|--9----------------|--7----------------|
A|--3--------7--------|--7----------------|--5----------------|
E|-----------5--------|-------------------|-------------------|


                                          [Riff A]

                                             >             >          >
    W                   W                    E     S S S S E  S S S S E  S S
e|--3----------------|--L----------------|--12-----0-0-0-0-7--0-0-0-0-8--0-0-|
B|--3----------------|--L----------------|-----------------------------------|
G|--0----------------|--L----------------|-----------------------------------|
D|--x----------------|--L----------------|-----------------------------------|
A|--3----------------|--L----------------|-----------------------------------|
E|-------------------|-------------------|-----------------------------------|

        >          >      >         >          >          >
    S S E  S S S S E  S S E  S S    E  S S S S E  S S S S E  S S
e|--0-0-5--0-0-0-0-7--0-0-3--0-0-|--5--0-0-0-0-2--0-0-0-0-3--0-0-|
B|-------------------------------|-------------------------------|
G|-------------------------------|-------------------------------|
D|-------------------------------|-------------------------------|
A|-------------------------------|-------------------------------|
E|-------------------------------|-------------------------------|

        >          >      >          >          >          >
    S S E  S S S S E  S S E  S S     E  S S S S E  S S S S E  S S
e|--0-0-5--0-0-0-0-2--0-0-3--0-0-|--12--0-0-0-0-7--0-0-0-0-8--0-0-|
B|-------------------------------|--------------------------------|
G|-------------------------------|--------------------------------|
D|-------------------------------|--------------------------------|
A|-------------------------------|--------------------------------|
E|-------------------------------|--------------------------------|

        >          >      >         >          >          >
    S S E  S S S S E  S S E  S S    E  S S S S E  S S S S E  S S
e|--0-0-5--0-0-0-0-7--0-0-3--0-0-|--5--0-0-0-0-2--0-0-0-0-3--0-0-|
B|-------------------------------|-------------------------------|
G|-------------------------------|-------------------------------|
D|-------------------------------|-------------------------------|
A|-------------------------------|-------------------------------|
E|-------------------------------|-------------------------------|

        >          >      >          >          >          >
    S S E  S S S S E  S S E  S S     E  S S S S E  S S S S E  S S
e|--0-0-5--0-0-0-0-2--0-0-3--0-0-|--12--0-0-0-0-7--0-0-0-0-8--0-0-|
B|-------------------------------|--------------------------------|
G|-------------------------------|--------------------------------|
D|-------------------------------|--------------------------------|
A|-------------------------------|--------------------------------|
E|-------------------------------|--------------------------------|

        >          >      >         >          >          >
    S S E  S S S S E  S S E  S S    E  S S S S E  S S S S E  S S
e|--0-0-5--0-0-0-0-7--0-0-3--0-0-|--5--0-0-0-0-2--0-0-0-0-3--0-0-|
B|-------------------------------|-------------------------------|
G|-------------------------------|-------------------------------|
D|-------------------------------|-------------------------------|
A|-------------------------------|-------------------------------|
E|-------------------------------|-------------------------------|


                                   [Riff B]

        >          >      >          >             >          >
    S S E  S S S S E  S S E  S S     E     S S S S E  S S S S E  S S
e|--0-0-5--0-0-0-0-2--0-0-3--0-0-|--12-----0-0-0-0-7--0-0-0-0-8--0-0-|
B|-------------------------------|-----------------------------------|
G|-------------------------------|-----------------------------------|
D|-------------------------------|-----------------------------------|
A|-------------------------------|-----------------------------------|
E|-------------------------------|-----------------------------------|

        >          >      >         >          >          >
    S S E  S S S S E  S S E  S S    E  S S S S E  S S S S E  S S
e|--0-0-5--0-0-0-0-7--0-0-3--0-0-|--5--0-0-0-0-2--0-0-0-0-3--0-0-|
B|-------------------------------|-------------------------------|
G|-------------------------------|-------------------------------|
D|-------------------------------|-------------------------------|
A|-------------------------------|-------------------------------|
E|-------------------------------|-------------------------------|

        >          >      >          >          >          >
    S S E  S S S S E  S S E  S S     E  S S S S E  S S S S E  S S
e|--0-0-5--0-0-0-0-2--0-0-3--0-0-|--12--0-0-0-0-7--0-0-0-0-8--0-0-|
B|-------------------------------|--------------------------------|
G|-------------------------------|--------------------------------|
D|-------------------------------|--------------------------------|
A|-------------------------------|--------------------------------|
E|-------------------------------|--------------------------------|

        >          >      >         >          >          >
    S S E  S S S S E  S S E  S S    E  S S S S E  S S S S E  S S
e|--0-0-5--0-0-0-0-7--0-0-3--0-0-|--5--0-0-0-0-2--0-0-0-0-3--0-0-|
B|-------------------------------|-------------------------------|
G|-------------------------------|-------------------------------|
D|-------------------------------|-------------------------------|
A|-------------------------------|-------------------------------|
E|-------------------------------|-------------------------------|

        >          >      >          >          >          >
    S S E  S S S S E  S S E  S S     E  S S S S E  S S S S E  S S
e|--0-0-5--0-0-0-0-2--0-0-3--0-0-|--12--0-0-0-0-7--0-0-0-0-8--0-0-|
B|-------------------------------|--------------------------------|
G|-------------------------------|--------------------------------|
D|-------------------------------|--------------------------------|
A|-------------------------------|--------------------------------|
E|-------------------------------|--------------------------------|

        >          >      >         >          >          >
    S S E  S S S S E  S S E  S S    E  S S S S E  S S S S E  S S
e|--0-0-5--0-0-0-0-7--0-0-3--0-0-|--5--0-0-0-0-2--0-0-0-0-3--0-0-|
B|-------------------------------|-------------------------------|
G|-------------------------------|-------------------------------|
D|-------------------------------|-------------------------------|
A|-------------------------------|-------------------------------|
E|-------------------------------|-------------------------------|

        >          >      >          >          >          >
    S S E  S S S S E  S S E  S S     E  S S S S E  S S S S E  S S
e|--0-0-5--0-0-0-0-2--0-0-3--0-0-|--12--0-0-0-0-7--0-0-0-0-8--0-0-|
B|-------------------------------|--------------------------------|
G|-------------------------------|--------------------------------|
D|-------------------------------|--------------------------------|
A|-------------------------------|--------------------------------|
E|-------------------------------|--------------------------------|

        >          >      >
    S S E  S S S S E  S S E  S S    Q.     Q.     Q
e|--0-0-5--0-0-0-0-7--0-0-3--0-0-|---------------------|
B|-------------------------------|---------------------|
G|-------------------------------|---------------------|
D|-------------------------------|--2------4------5----|
A|-------------------------------|---------------------|
E|-------------------------------|---------------------|


                              [Solo Adrian Smith]

                                                     PM    PM PM    PM
    E    Q.       Q     Q       E                 E  E  E  E  E  E  E
e|---------------------------|-----------------------------------------|
B|---------------------------|-----------------------------------------|
G|---------------------------|-----------------------------------------|
D|--L--5g7------7g9----10----|--7s----------------9-----9--------9-----|
A|---------------------------|--5s----------------7--7--7--7--7--7--7--|
E|---------------------------|-----------------------------------------|

    PM    PM PM    PM    PM           PM    PM PM    PM
    E  E  E  E  E  E  E  E     E   E  E  E  E  E  E  E
e|--------------------------|---------------------------|
B|--------------------------|---------------------------|
G|--------------------------|---------------------------|
D|-----9--------9-----9-----|--7s--9-----9--------9-----|
A|--7--7--7--7--7--7--7--7--|--5s--7--7--7--7--7--7--7--|
E|--------------------------|---------------------------|

    PM    PM PM    PM    PM       PM PM    PM PM    PM
    E  E  E  E  E  E  E  E     E  E  E  E  E  E  E  E
e|--------------------------|--------------------------|
B|--------------------------|--------------------------|
G|--------------------------|--------------------------|
D|-----9--------9-----9-----|--7--------7--------7-----|
A|--7--7--7--7--7--7--7--7--|--5--5--5--5--5--5--5--5--|
E|--------------------------|--------------------------|

       PM PM    PM PM    PM       PM PM    PM PM    PM
    E  E  E  E  E  E  E  E     E  E  E  E  E  E  E  E
e|--------------------------|--------------------------|
B|--------------------------|--------------------------|
G|--------------------------|--------------------------|
D|--7--------7--------7-----|--5--------5--------5-----|
A|--5--5--5--5--5--5--5--5--|--3--3--3--3--3--3--3--3--|
E|--------------------------|--------------------------|

    PM    PM PM    PM                 PM    PM PM    PM
    E  E  E  E  E  E  E  E     E   E  E  E  E  E  E  E
e|--------------------------|---------------------------|
B|--------------------------|---------------------------|
G|--------------------------|---------------------------|
D|-----5--------5-----7--7--|--7s--9-----9--------9-----|
A|--3--3--3--3--3--3--5--5--|--5s--7--7--7--7--7--7--7--|
E|--------------------------|---------------------------|

    PM    PM PM    PM    PM           PM    PM PM    PM
    E  E  E  E  E  E  E  E     E   E  E  E  E  E  E  E
e|--------------------------|---------------------------|
B|--------------------------|---------------------------|
G|--------------------------|---------------------------|
D|-----9--------9-----9-----|--7s--9-----9--------9-----|
A|--7--7--7--7--7--7--7--7--|--5s--7--7--7--7--7--7--7--|
E|--------------------------|---------------------------|

    PM    PM PM    PM    PM       PM PM    PM PM    PM
    E  E  E  E  E  E  E  E     E  E  E  E  E  E  E  E
e|--------------------------|--------------------------|
B|--------------------------|--------------------------|
G|--------------------------|--------------------------|
D|-----9--------9-----9-----|--7--------7--------7-----|
A|--7--7--7--7--7--7--7--7--|--5--5--5--5--5--5--5--5--|
E|--------------------------|--------------------------|

       PM PM    PM PM    PM       PM PM    PM PM    PM
    E  E  E  E  E  E  E  E     E  E  E  E  E  E  E  E
e|--------------------------|--------------------------|
B|--------------------------|--------------------------|
G|--------------------------|--------------------------|
D|--7--------7--------7-----|--5--------5--------5-----|
A|--5--5--5--5--5--5--5--5--|--3--3--3--3--3--3--3--3--|
E|--------------------------|--------------------------|


                             [Chorus]

    PM    PM PM    PM
    E  E  E  E  E  E  E  E     W                   H        H
e|--------------------------|--3----------------|--------------------|
B|--------------------------|--3----------------|--------------------|
G|--------------------------|--0----------------|--5-----------------|
D|-----5--------5-----7--7--|--0----------------|--5--------7--------|
A|--3--3--3--3--3--3--5--5--|--x----------------|--3--------7--------|
E|--------------------------|--3----------------|-----------5--------|

    W                   H        H           W
e|-------------------|--------------------|-------------------|
B|-------------------|--------------------|-------------------|
G|--7----------------|--5-----------------|--9----------------|
D|--7----------------|--5--------7--------|--9----------------|
A|--5----------------|--3--------7--------|--7----------------|
E|-------------------|-----------5--------|-------------------|

    W                   W                   W                   W
e|-------------------|--3----------------|--L----------------|--3----------------|
B|-------------------|--3----------------|--L----------------|--3----------------|
G|--7----------------|--0----------------|--L----------------|--0----------------|
D|--7----------------|--x----------------|--L----------------|--0----------------|
A|--5----------------|--3----------------|--L----------------|--x----------------|
E|-------------------|-------------------|-------------------|--3----------------|

    H        H           W                   H        H
e|--------------------|-------------------|--------------------|
B|--------------------|-------------------|--------------------|
G|--5-----------------|--7----------------|--5-----------------|
D|--5--------7--------|--7----------------|--5--------7--------|
A|--3--------7--------|--5----------------|--3--------7--------|
E|-----------5--------|-------------------|-----------5--------|

    W                   W                   W                   W
e|-------------------|-------------------|--3----------------|--L----------------|
B|-------------------|-------------------|--3----------------|--L----------------|
G|--9----------------|--7----------------|--0----------------|--L----------------|
D|--9----------------|--7----------------|--x----------------|--L----------------|
A|--7----------------|--5----------------|--3----------------|--L----------------|
E|-------------------|-------------------|-------------------|-------------------|

    W                   H        H           W
e|--3----------------|--------------------|-------------------|
B|--3----------------|--------------------|-------------------|
G|--0----------------|--5-----------------|--7----------------|
D|--0----------------|--5--------7--------|--7----------------|
A|--x----------------|--3--------7--------|--5----------------|
E|--3----------------|-----------5--------|-------------------|

    H        H           W                   W
e|--------------------|-------------------|-------------------|
B|--------------------|-------------------|-------------------|
G|--5-----------------|--9----------------|--7----------------|
D|--5--------7--------|--9----------------|--7----------------|
A|--3--------7--------|--7----------------|--5----------------|
E|-----------5--------|-------------------|-------------------|

    W                   W                   W
e|--3----------------|--L----------------|--3----------------|
B|--3----------------|--L----------------|--3----------------|
G|--0----------------|--L----------------|--0----------------|
D|--x----------------|--L----------------|--0----------------|
A|--3----------------|--L----------------|--x----------------|
E|-------------------|-------------------|--3----------------|

    H        H           W                   H        H
e|--------------------|-------------------|--------------------|
B|--------------------|-------------------|--------------------|
G|--5-----------------|--7----------------|--5-----------------|
D|--5--------7--------|--7----------------|--5--------7--------|
A|--3--------7--------|--5----------------|--3--------7--------|
E|-----------5--------|-------------------|-----------5--------|

    W                   W                   W                   W
e|-------------------|-------------------|--3----------------|--L----------------|
B|-------------------|-------------------|--3----------------|--L----------------|
G|--9----------------|--7----------------|--0----------------|--L----------------|
D|--9----------------|--7----------------|--x----------------|--L----------------|
A|--7----------------|--5----------------|--3----------------|--L----------------|
E|-------------------|-------------------|-------------------|-------------------|


  [Riff A]

     >             >          >             >          >      >
     E     S S S S E  S S S S E  S S    S S E  S S S S E  S S E  S S
e|--12-----0-0-0-0-7--0-0-0-0-8--0-0-|--0-0-5--0-0-0-0-7--0-0-3--0-0-|
B|-----------------------------------|-------------------------------|
G|-----------------------------------|-------------------------------|
D|-----------------------------------|-------------------------------|
A|-----------------------------------|-------------------------------|
E|-----------------------------------|-------------------------------|

    >          >          >             >          >      >
    E  S S S S E  S S S S E  S S    S S E  S S S S E  S S E  S S
e|--5--0-0-0-0-2--0-0-0-0-3--0-0-|--0-0-5--0-0-0-0-2--0-0-3--0-0-|
B|-------------------------------|-------------------------------|
G|-------------------------------|-------------------------------|
D|-------------------------------|-------------------------------|
A|-------------------------------|-------------------------------|
E|-------------------------------|-------------------------------|

     >          >          >             >          >      >
     E  S S S S E  S S S S E  S S    S S E  S S S S E  S S E  S S
e|--12--0-0-0-0-7--0-0-0-0-8--0-0-|--0-0-5--0-0-0-0-7--0-0-3--0-0-|
B|--------------------------------|-------------------------------|
G|--------------------------------|-------------------------------|
D|--------------------------------|-------------------------------|
A|--------------------------------|-------------------------------|
E|--------------------------------|-------------------------------|

    >          >          >             >          >      >
    E  S S S S E  S S S S E  S S    S S E  S S S S E  S S E  S S
e|--5--0-0-0-0-2--0-0-0-0-3--0-0-|--0-0-5--0-0-0-0-2--0-0-3--0-0-|
B|-------------------------------|-------------------------------|
G|-------------------------------|-------------------------------|
D|-------------------------------|-------------------------------|
A|-------------------------------|-------------------------------|
E|-------------------------------|-------------------------------|

     >          >          >             >          >      >
     E  S S S S E  S S S S E  S S    S S E  S S S S E  S S E  S S
e|--12--0-0-0-0-7--0-0-0-0-8--0-0-|--0-0-5--0-0-0-0-7--0-0-3--0-0-|
B|--------------------------------|-------------------------------|
G|--------------------------------|-------------------------------|
D|--------------------------------|-------------------------------|
A|--------------------------------|-------------------------------|
E|--------------------------------|-------------------------------|


 [Outro]

    Q.     Q.     Q       E  E  Q    E  E  Q       E  E  H.
e|---------------------|------------------------|---------------------|
B|---------------------|------------------------|---------------------|
G|---------------------|------------------------|---------------------|
D|--5------4-----------|------------------------|-----2--L------------|
A|--3------2------7----|--L--5--L----7--5--2----|--L--2--L------------|
E|----------------5----|--L--3--L----5--3--0----|--L--0--L------------|

    W                   W                   W
e|-------------------|-------------------|-------------------||
B|-------------------|-------------------|-------------------||
G|-------------------|-------------------|-------------------||
D|--L----------------|--L----------------|--L----------------||
A|--L----------------|--L----------------|--L----------------||
E|--L----------------|--L----------------|--L----------------||


[Voice Melody]

Bruce Dickinson


         [Intro]

     S    W                   W                   W
e||----|-------------------|-------------------|-------------------------|
B||----|-------------------|-------------------|-------------------------|
G||----|-------------------|-------------------|-------------------------|
D||----|-------------------|-------------------|-------------------------|
A||----|-------------------|-------------------|-------------------------|
E||----|-------------------|-------------------|-------------------------|

    W                   W                   W                   W
e|-------------------|-------------------|-------------------|-------------------|
B|-------------------|-------------------|-------------------|-------------------|
G|-------------------|-------------------|-------------------|-------------------|
D|-------------------|-------------------|-------------------|-------------------|
A|-------------------|-------------------|-------------------|-------------------|
E|-------------------|-------------------|-------------------|-------------------|

    W                   W                   W                   W
e|-------------------|-------------------|-------------------|-------------------|
B|-------------------|-------------------|-------------------|-------------------|
G|-------------------|-------------------|-------------------|-------------------|
D|-------------------|-------------------|-------------------|-------------------|
A|-------------------|-------------------|-------------------|-------------------|
E|-------------------|-------------------|-------------------|-------------------|

    W                   W                   W                   W
e|-------------------|-------------------|-------------------|-------------------|
B|-------------------|-------------------|-------------------|-------------------|
G|-------------------|-------------------|-------------------|-------------------|
D|-------------------|-------------------|-------------------|-------------------|
A|-------------------|-------------------|-------------------|-------------------|
E|-------------------|-------------------|-------------------|-------------------|


                                               [Verse Riff]

                                      From the    coast      of  gold,
    W                   H.            E    E      Q          E   H        E
e|-------------------|---------------19---17--|--12---------12--12-----------|
B|-------------------|------------------------|------------------------------|
G|-------------------|---------------16---14--|---9----------9---9-----------|
D|-------------------|------------------------|------------------------------|
A|-------------------|------------------------|------------------------------|
E|-------------------|------------------------|------------------------------|

                 aa  cross the    se  ven   seas,
    H        E   E   E     E      E   Q     E     H
e|--------------15--15----15--|--15--14----14-----L--------|
B|----------------------------|----------------------------|
G|--------------12--12----12--|--12--11----11-----L--------|
D|----------------------------|----------------------------|
A|----------------------------|----------------------------|
E|----------------------------|----------------------------|

                     I'm    tra   velling on,
    H.           E   E      Q     E       S   S  H           W
e|----------------------|--12----12------12---L--L--------|-------------------|
B|------------------15--|---------------------------------|-------------------|
G|----------------------|---9-----9-------9---L--L--------|-------------------|
D|------------------12--|---------------------------------|-------------------|
A|----------------------|---------------------------------|-------------------|
E|----------------------|---------------------------------|-------------------|

     far   and wide,                              But
     Q     E   E     H           H.           E   E
e|--15----14--14-----L--------|------------------14--|
B|----------------------------|----------------------|
G|--12----11--11-----L--------|------------------11--|
D|----------------------------|----------------------|
A|----------------------------|----------------------|
E|----------------------------|----------------------|

     now   it  seems,                             I'm just a
     Q     E   S      S  H           H        E   E   E    E
e|--15----12--12------L--L--------|--------------14--15---17--|
B|--------------------------------|---------------------------|
G|--12-----9---9------L--L--------|--------------11--12---14--|
D|--------------------------------|---------------------------|
A|--------------------------------|---------------------------|
E|--------------------------------|---------------------------|

     stran ger   to  my    self,                 And all the
     Q     Q     E   Q     E        H        E   E   E   E
e|--19----17----15--14----15----|---L-----------15--15--15--|
B|------------------------------|---------------------------|
G|--16----14----12--11----12----|---L-----------12--12--12--|
D|------------------------------|---------------------------|
A|------------------------------|---------------------------|
E|------------------------------|---------------------------|

     things I     some    times do,                 it  isn n't
     Q      Q     S    S  Q     E      H        E   E   E   E
e|--15-----14----14----L-12----14--|---L-----------10--12--14--|
B|---------------------------------|---------------------------|
G|--12-----11----11----L--9----11--|---L------------7---9--11--|
D|---------------------------------|---------------------------|
A|---------------------------------|---------------------------|
E|---------------------------------|---------------------------|

     me  but it`s some  one else.                     I
     E   E   E    Q     E   Q        H.           E   E
e|--15--15--15---15----14--15----|---L---------------10--|
B|-------------------------------|-----------------------|
G|--12--12--12---12----11--12----|---L----------------7--|
D|-------------------------------|-----------------------|
A|-------------------------------|-----------------------|
E|-------------------------------|-----------------------|


[Verse Riff]

     close      my  eyes,                           and
     Q          E   E     H           H.            Q
e|--12---------12--12-----L--------|---------------14----|
B|---------------------------------|---------------------|
G|---9----------9---9-----L--------|---------------11----|
D|---------------------------------|---------------------|
A|---------------------------------|---------------------|
E|---------------------------------|---------------------|

     think of  home,                           A   no  ther
     Q     E   E     H            E  H         E   E   E
e|--15----14--14-----L--------|---L-----------12--10--10---|
B|----------------------------|----------------------------|
G|--12----11--11-----L--------|---L------------9---7---7---|
D|----------------------------|----------------------------|
A|----------------------------|----------------------------|
E|----------------------------|----------------------------|

     ci  ty  goes  by,                   in    the ni           ght,
     E   E   Q     H           H         Q     E   E      Q     H.
e|--10--12--12----12--------|-----------10----12--19--|---L----17------------|
B|--------------------------|-------------------------|----------------------|
G|---7---9---9-----9--------|------------7-----9--16--|---L----14------------|
D|--------------------------|-------------------------|----------------------|
A|--------------------------|-------------------------|----------------------|
E|--------------------------|-------------------------|----------------------|

                  Ain't it     fu  nny how it  is,
    H.            E     E      E   E   E   E   H
e|---------------15----14--|--15--14--12--10--12--------|
B|-------------------------|----------------------------|
G|---------------12----11--|--12--11---9---7---9--------|
D|-------------------------|----------------------------|
A|-------------------------|----------------------------|
E|-------------------------|----------------------------|

                 you ne  ver    miss it  til it's gone  a   way,
    H        E   E   E   E      E    E   E   E    Q     E   E
e|--------------12--15--17--|--19---17--15--14---15----14--15---|
B|--------------------------|-----------------------------------|
G|---------------9--12--14--|--16---14--12--11---12----11--12---|
D|--------------------------|-----------------------------------|
A|--------------------------|-----------------------------------|
E|--------------------------|-----------------------------------|

                      And my     heart is  ly    ing there
     E   H        E   E   E      Q     E   Q     E   Q
e|---L---L-----------15--15--|--15----14--14----12--14----|
B|---------------------------|----------------------------|
G|---L---L-----------12--12--|--12----11--11-----9--11----|
D|---------------------------|----------------------------|
A|---------------------------|----------------------------|
E|---------------------------|----------------------------|

                  and will be     til   my  dy    ing   day.
     H        E   E   E    E      Q     E   Q     Q     E
e|---L-----------10--12---14--|--15----14--15----17----19---|
B|----------------------------|-----------------------------|
G|---L------------7---9---11--|--12----11--12----14----16---|
D|----------------------------|-----------------------------|
A|----------------------------|-----------------------------|
E|----------------------------|-----------------------------|


                        [Chorus]

                           So      oo      oo                 un    der
     H.           Q        Q.      Q.      Q        H         Q     Q
e|---L-----------------|--19------17------15----|---L--------17----19----|
B|---------------------|------------------------|------------------------|
G|---L-----------------|--16------14------12----|---L--------14----16----|
D|---------------------|------------------------|------------------------|
A|---------------------|------------------------|------------------------|
E|---------------------|------------------------|------------------------|

     sta     aa   and                           Don't
     Q.      E    H            H.           E   E
e|--17------12s--14--------|---L---------------17----|
B|-------------------------|-------------------------|
G|--14-------9s--11--------|---L---------------14----|
D|-------------------------|-------------------------|
A|-------------------------|-------------------------|
E|-------------------------|-------------------------|

     waste your    time  al    ways    sear  ching for   those
     Q     S    S  Q     Q     E       Q     E     Q     Q.
e|--19----17----L-15----15----17---|--19----17----15----14------|
B|---------------------------------|----------------------------|
G|--16----14----L-12----12----14---|--16----14----12----11------|
D|---------------------------------|----------------------------|
A|---------------------------------|----------------------------|
E|---------------------------------|----------------------------|

     was     ted     years,                          Face    uu      up...
     Q.      Q.      Q         H.           Q        Q.      Q.      Q
e|--15------15------15-----|---L-----------------|--19------17------15----|
B|-------------------------|---------------------|------------------------|
G|--12------12------12-----|---L-----------------|--16------14------12----|
D|-------------------------|---------------------|------------------------|
A|-------------------------|---------------------|------------------------|
E|-------------------------|---------------------|------------------------|

               make  your     sta     aa   and,                          And
     H         Q     Q        Q.      E    H            H.           E   E
e|---L--------17----19----|--17------12s--14--------|---L---------------17--|
B|------------------------|-------------------------|-----------------------|
G|---L--------14----16----|--14-------9s--11--------|---L---------------14--|
D|------------------------|-------------------------|-----------------------|
A|------------------------|-------------------------|-----------------------|
E|------------------------|-------------------------|-----------------------|

     re    aa  lise    you're    li  ving  in    the
     Q     E   Q.      Q         E   Q     Q     Q.
e|--19----17--15------17-----|--19--17----15----14------|
B|---------------------------|--------------------------|
G|--16----14--12------14-----|--16--14----12----11------|
D|---------------------------|--------------------------|
A|---------------------------|--------------------------|
E|---------------------------|--------------------------|

     gol     den     years.
     Q.      Q.      Q         H.           Q
e|--15------15------15-----|---L-----------------|
B|-------------------------|---------------------|
G|--12------12------12-----|---L-----------------|
D|-------------------------|---------------------|
A|-------------------------|---------------------|
E|-------------------------|---------------------|


  [Verse Riff]

     Too           much  time  on  my       hands,       I   got you
     S          S  Q     Q     E   Q        H        E   E   E   E
e|--10----------L-12----12----10--12----|--12-----------15--15--15--|
B|--------------------------------------|---------------------------|
G|---7----------L--9-----9-----7---9----|---9-----------12--12--12--|
D|--------------------------------------|---------------------------|
A|--------------------------------------|---------------------------|
E|--------------------------------------|---------------------------|

     on  my    mi    ii  nd,                     Can't
     E   Q     Q     E   Q        Q    H         Q
e|--15--14----14----12--10----|---L-------------10----|
B|----------------------------|-----------------------|
G|--12--11----11-----9---7----|---L--------------7----|
D|----------------------------|-----------------------|
A|----------------------------|-----------------------|
E|----------------------------|-----------------------|

     ease  this    pain,                             so
     Q     S    S  E     H            H        Q     Q
e|--10----12----L-12-----L--------|---L-------------15----|
B|--------------------------------|-----------------------|
G|---7-----9----L--9-----L--------|---L-------------12----|
D|--------------------------------|-----------------------|
A|--------------------------------|-----------------------|
E|--------------------------------|-----------------------|

     easi    ly,                             When    you
     Q.      E   H            H        Q     S    S  E
e|--14------17---L--------|---L-------------15----L-17--|
B|------------------------|-----------------------------|
G|--11------14---L--------|---L-------------12----L-14--|
D|------------------------|-----------------------------|
A|------------------------|-----------------------------|
E|------------------------|-----------------------------|

     can't find the words to  say,                 it's hard to
     E.    E.   E   Q     E   E       H        E   E    E    E
e|--19----17---15--15----14--15---|---L-----------14---15---17--|
B|--------------------------------|-----------------------------|
G|--16----14---12--12----11--12---|---L-----------11---12---14--|
D|--------------------------------|-----------------------------|
A|--------------------------------|-----------------------------|
E|--------------------------------|-----------------------------|

     make it  through a   no    ther day,                   And it
     E    E   E       E   Q     E    E       H        Q     E   E
e|--19---17--15------14--15----14---15---|---L-------------15--15--|
B|---------------------------------------|-------------------------|
G|--16---14--12------11--12----11---12---|---L-------------12--12--|
D|---------------------------------------|-------------------------|
A|---------------------------------------|-------------------------|
E|---------------------------------------|-------------------------|

     makes me  wa  nna   cry,                  and throw    my
     Q     E   E   Q     Q        H        E   E   S     S  E
e|--15----14--14--12----14----|---L-----------14--15-----L-14--|
B|----------------------------|--------------------------------|
G|--12----11--11---9----11----|---L-----------11--12-----L-11--|
D|----------------------------|--------------------------------|
A|----------------------------|--------------------------------|
E|----------------------------|--------------------------------|


                                                      [Chorus]

     hands up    to  the   sky.                          So      oo      oo
     Q     Q     E   Q     E       H.           Q        Q.      Q.      Q
e|--15----14----15--17----19---|---L-----------------|--19------17------15----|
B|-----------------------------|---------------------|------------------------|
G|--12----11----12--14----16---|---L-----------------|--16------14------12----|
D|-----------------------------|---------------------|------------------------|
A|-----------------------------|---------------------|------------------------|
E|-----------------------------|---------------------|------------------------|

               un    der      sta     aa   and                           Don't
     H         Q     Q        Q.      E    H            H.           E   E
e|---L--------17----19----|--17------12s--14--------|---L---------------17----|
B|------------------------|-------------------------|-------------------------|
G|---L--------14----16----|--14-------9s--11--------|---L---------------14----|
D|------------------------|-------------------------|-------------------------|
A|------------------------|-------------------------|-------------------------|
E|------------------------|-------------------------|-------------------------|

     waste your    time  al    ways    sear  ching for   those
     Q     S    S  Q     Q     E       Q     E     Q     Q.
e|--19----17----L-15----15----17---|--19----17----15----14------|
B|---------------------------------|----------------------------|
G|--16----14----L-12----12----14---|--16----14----12----11------|
D|---------------------------------|----------------------------|
A|---------------------------------|----------------------------|
E|---------------------------------|----------------------------|

     was     ted     years,                          Face    uu      up...
     Q.      Q.      Q         H.           Q        Q.      Q.      Q
e|--15------15------15-----|---L-----------------|--19------17------15----|
B|-------------------------|---------------------|------------------------|
G|--12------12------12-----|---L-----------------|--16------14------12----|
D|-------------------------|---------------------|------------------------|
A|-------------------------|---------------------|------------------------|
E|-------------------------|---------------------|------------------------|

               make  your     sta     aa   and,                          And
     H         Q     Q        Q.      E    H            H.           E   E
e|---L--------17----19----|--17------12s--14--------|---L---------------17--|
B|------------------------|-------------------------|-----------------------|
G|---L--------14----16----|--14-------9s--11--------|---L---------------14--|
D|------------------------|-------------------------|-----------------------|
A|------------------------|-------------------------|-----------------------|
E|------------------------|-------------------------|-----------------------|

     re    aa  lise    you're    li  ving  in    the
     Q     E   Q.      Q         E   Q     Q     Q.
e|--19----17--15------17-----|--19--17----15----14------|
B|---------------------------|--------------------------|
G|--16----14--12------14-----|--16--14----12----11------|
D|---------------------------|--------------------------|
A|---------------------------|--------------------------|
E|---------------------------|--------------------------|


                                                  [Riff A]

     gol     den     years.
     Q.      Q.      Q         H.           Q       W
e|--15------15------15-----|---L-----------------|-------------------|
B|-------------------------|---------------------|-------------------|
G|--12------12------12-----|---L-----------------|-------------------|
D|-------------------------|---------------------|-------------------|
A|-------------------------|---------------------|-------------------|
E|-------------------------|---------------------|-------------------|



                      [Chorus]

                         So      oo      oo                 un    der
    W                    Q.      Q.      Q        H         Q     Q
e|-------------------|--19------17------15----|---L--------17----19----|
B|-------------------|------------------------|------------------------|
G|-------------------|--16------14------12----|---L--------14----16----|
D|-------------------|------------------------|------------------------|
A|-------------------|------------------------|------------------------|
E|-------------------|------------------------|------------------------|

     sta     aa   and                           Don't
     Q.      E    H            H.           E   E
e|--17------12s--14--------|---L---------------17----|
B|-------------------------|-------------------------|
G|--14-------9s--11--------|---L---------------14----|
D|-------------------------|-------------------------|
A|-------------------------|-------------------------|
E|-------------------------|-------------------------|

     waste your    time  al    ways    sear  ching for   those
     Q     S    S  Q     Q     E       Q     E     Q     Q.
e|--19----17----L-15----15----17---|--19----17----15----14------|
B|---------------------------------|----------------------------|
G|--16----14----L-12----12----14---|--16----14----12----11------|
D|---------------------------------|----------------------------|
A|---------------------------------|----------------------------|
E|---------------------------------|----------------------------|

     was     ted     years,                          Face    uu      up...
     Q.      Q.      Q         H.           Q        Q.      Q.      Q
e|--15------15------15-----|---L-----------------|--19------17------15----|
B|-------------------------|---------------------|------------------------|
G|--12------12------12-----|---L-----------------|--16------14------12----|
D|-------------------------|---------------------|------------------------|
A|-------------------------|---------------------|------------------------|
E|-------------------------|---------------------|------------------------|

               make  your     sta     aa   and,                          And
     H         Q     Q        Q.      E    H            H.           E   E
e|---L--------17----19----|--17------12s--14--------|---L---------------17--|
B|------------------------|-------------------------|-----------------------|
G|---L--------14----16----|--14-------9s--11--------|---L---------------14--|
D|------------------------|-------------------------|-----------------------|
A|------------------------|-------------------------|-----------------------|
E|------------------------|-------------------------|-----------------------|

     re    aa  lise    you're    li  ving  in    the
     Q     E   Q.      Q         E   Q     Q     Q.
e|--19----17--15------17-----|--19--17----15----14------|
B|---------------------------|--------------------------|
G|--16----14--12------14-----|--16--14----12----11------|
D|---------------------------|--------------------------|
A|---------------------------|--------------------------|
E|---------------------------|--------------------------|

     gol     den     years.                          So      oo      oo
     Q.      Q.      Q         H.           Q        Q.      Q.      Q
e|--15------15------15-----|---L-----------------|--19------17------15----|
B|-------------------------|---------------------|------------------------|
G|--12------12------12-----|---L-----------------|--16------14------12----|
D|-------------------------|---------------------|------------------------|
A|-------------------------|---------------------|------------------------|
E|-------------------------|---------------------|------------------------|

               un    der      sta     aa   and                           Don't
     H         Q     Q        Q.      E    H            H.           E   E
e|---L--------17----19----|--17------12s--14--------|---L---------------17----|
B|------------------------|-------------------------|-------------------------|
G|---L--------14----16----|--14-------9s--11--------|---L---------------14----|
D|------------------------|-------------------------|-------------------------|
A|------------------------|-------------------------|-------------------------|
E|------------------------|-------------------------|-------------------------|

     waste your    time  al    ways    sear  ching for   those
     Q     S    S  Q     Q     E       Q     E     Q     Q.
e|--19----17----L-15----15----17---|--19----17----15----14------|
B|---------------------------------|----------------------------|
G|--16----14----L-12----12----14---|--16----14----12----11------|
D|---------------------------------|----------------------------|
A|---------------------------------|----------------------------|
E|---------------------------------|----------------------------|

     was     ted     years,                          Face    uu      up...
     Q.      Q.      Q         H.           Q        Q.      Q.      Q
e|--15------15------15-----|---L-----------------|--19------17------15----|
B|-------------------------|---------------------|------------------------|
G|--12------12------12-----|---L-----------------|--16------14------12----|
D|-------------------------|---------------------|------------------------|
A|-------------------------|---------------------|------------------------|
E|-------------------------|---------------------|------------------------|

               make  your     sta     aa   and,                          And
     H         Q     Q        Q.      E    H            H.           E   E
e|---L--------17----19----|--17------12s--14--------|---L---------------17--|
B|------------------------|-------------------------|-----------------------|
G|---L--------14----16----|--14-------9s--11--------|---L---------------14--|
D|------------------------|-------------------------|-----------------------|
A|------------------------|-------------------------|-----------------------|
E|------------------------|-------------------------|-----------------------|

     re    aa  lise    you're    li  ving  in    the
     Q     E   Q.      Q         E   Q     Q     Q.
e|--19----17--15------17-----|--19--17----15----14------|
B|---------------------------|--------------------------|
G|--16----14--12------14-----|--16--14----12----11------|
D|---------------------------|--------------------------|
A|---------------------------|--------------------------|
E|---------------------------|--------------------------|


                                                  [Riff A]

     gol     den     years.
     Q.      Q.      Q         H.           Q       W
e|--15------15------15-----|---L-----------------|-------------------|
B|-------------------------|---------------------|-------------------|
G|--12------12------12-----|---L-----------------|-------------------|
D|-------------------------|---------------------|-------------------|
A|-------------------------|---------------------|-------------------|
E|-------------------------|---------------------|-------------------|


Duration Legend
---------------
W - whole
H - half
Q - quarter
E - 8th
S - 16th
T - 32nd
X - 64th
. - note dotted
|-n-|  - n-tuplets


Tablature Legend
----------------
L - tied note
x - dead note
g - grace note
(n) - ghost note
> - accentuded note
NH - natural harmonic
AH - artificial harmonic
TH - tapped harmonic
SH - semi harmonic
PH - pitch harmonic
h - hammer on
p - pull off
b - bend
br - bendRelease
pb - preBend
pbr - preBendRelease
brb - bendReleaseBend
\n/ - tremolo bar dip
\n - tremolo bar dive
-/n - tremolo bar Release up
/n\ - tremolo bar inverted dip
/n - tremolo bar return
-\n - tremolo bar Release down
S - shift slide
s - legato slide
/ -  slide into from below or out of upwards
\ -  slide into from above or out of downwards
~ - vibrato
W - wide vibrato
tr - trill
TP - tremolo picking
T - tapping
S - slap
P - pop
< - fade in
^ - brush up
v - brush down

            
            
Suggest correction
Creating personal tab
Creating personal tab
You can edit any tab online and save it as your Personal.

You can edit, replace or remove any tab part or add personal notes – all changes will be seen only by you.

Personal tabs can be accessed anytime from any device, even offline.
Learn more »
comments
print report bad tab
3 comments total.
+2 reply
dudurata 10 May 30, 2013 04:49 AM

Hi there Ricardo! First of all thank you for all your effort putting these tabs here. I am a huge Maiden fan and i see you are also :D. You are one of the best maiden tabber here, but i see some of your tabs are not 100% (almost impossible from my point of view, but i think we can get close enough). Anyway, i dont want to send a correction, but i think you should take a closer listen to the solo. If this is the Studio version, please take a look at youtube.com/watch?v=dKuWiH3Cahs. This is the best tab ive found on the internet. Thanks for your time man, keep it up! Up the Irons from Brazil \m/ \m/

+2 reply
dudurata 10 May 30, 2013 05:05 AM

Another tip i could add about Adrian Smith techniques: The first lick he does in the solo with hammer-ons/pull-offs is actually a "signature lick" and is not only h-o/p-off. It is actually a combination of a few picked notes mixed with h-o/p-o. He repeats a similar pattern later on in the solo. It looks like a minor detail but once you understand the correct notes/picking pattern, you will hear it will sound much better and more accurate. I call this a "tip" because this is a technique he uses in many solos, thats why i called it a "signature lick", so if you understand what he does here, it will be easier to understand some of his other solos (Alexander the Great, for instance). Hope this helps, cya

guest
You may want to rate the tab now too:
select rating
Wanna post a correction for this tab? Suggest correction