Oops, an error
Loading. Please wait.

When The Wild Wind Blows tab

version 1
version 1

Whole song

Interactive

21,357 views 18 this week
1 commentread comment
1 2 3 4 5
x 3
add to favorites
×
Save as Personal and add changes to this tab that will be seen only by you. Learn more ›
×
You can save this tab as Personal to edit and correct it or add notes. All changes will be seen only by you. Learn more »
launch autoscroll
font size
0
reset
how to read this tab
guitar tuner
backing track
0:00
0:00
edit
Autoscroll
slow
fast
+/-
esc
set tempo
stop
Author
Difficulty
-------------------------------------------------------------------------------
                when the wild wind blows-Iron Maiden
-----------------------------------------------------------------------------Tabbed by:John Davis
Email:redwood237@yahoo.com
Tuning:E standard

this is the part after the begining bass part thats like a rhythm lead for the verse

             play the first part again after the second part
e|------------------------------------:------------------------------|
B|------------------------------------:------------------------------|
G|--9-11-12-11-9-9-7-7----7-----------:--9-11-12-11-9-9-7-7----------|
D|----------------------9---9-9--5--7-:---------------------9--7-----|
A|------------------------------------:------------------------------|
E|------------------------------------:------------------------------|
                      repeat whole section twice
e|-------------------------------------------------------------------|
B|-------------------15----------------------------------------------|
G|--12-11-12-14-16---------------------------------------------------|
D|-------------------------------------------------------------------|
A|-------------------------------------------------------------------|
E|-------------------------------------------------------------------|
                  repeat as much as needed
e|-------------------------------------------------------------------|
B|-------------------------------------------------------------------|
G|-------------------------------------------------------------------|
D|-9-11-12-12-11-9-7-7-9-9-7-7-9-9--9-11-12-12-11-9-9-7-7------------|
A|-------------------------------------------------------9-9-7-7-----|
E|-------------------------------------------------------------------|
 the next lead part is just the beginning distorted with a rhythm thats this
e|------------------------------------------------------------------|
B|------------------------------------------------------------------|
G|-9-9--5-5-------7-7-----------------------------------------------|
D|-9-9--5-5--5-5--7-7-----------------------------------------------|
A|-7-7--3-3--5-5--5-5-----------------------------------------------|
E|-----------3-3----------------------------------------------------|
          this is all i got so far but i will add on once i figure more out.

| /   slide up
| \   slide down
| h   hammer-on
| p   pull-off
| ~   vibrato
| +   harmonic
| x   Mute note
| b   Bend
| pb  Pre-bend
| br  Bend release
| pbr Pre-bend release
| brb Bend release bend

************************************

            
            
Suggest correction
Creating personal tab
Creating personal tab
You can edit any tab online and save it as your Personal.

You can edit, replace or remove any tab part or add personal notes – all changes will be seen only by you.

Personal tabs can be accessed anytime from any device, even offline.
Learn more »
Give kudos to tab author, rate the tab!
1 2 3 4 5
comments
print report bad tab
1 comment total.
-1 reply
diceysnowball 20 May 10, 2014 03:37 PM

lol
At least you tried

guest
You may want to rate the tab now too:
select rating
Wanna post a correction for this tab? Suggest correction