Oops, an error
Loading. Please wait.

When The Wild Wind Blows tab

version 2
version 2

Whole song

Interactive

85,088 views 108 this week
2 commentsread comments
1 2 3 4 5
x 33
add to favorites
×
Save as Personal and add changes to this tab that will be seen only by you. Learn more ›
×
You can save this tab as Personal to edit and correct it or add notes. All changes will be seen only by you. Learn more »
launch autoscroll
font size
0
reset
how to read this tab
guitar tuner
backing track
0:00
0:00
edit
Autoscroll
slow
fast
+/-
esc
set tempo
stop
Author
Sorry guys, dont have all of the solos yet. I haven't had nearly enough time. Here
the full tab with the solos i do have. I will definately be tabbing the rest of them
For the parts missing there is still the backing part i will give you. Without further 
I give you the epic
When The Wild Wind Blows.
Tuning:standard eadgbe(low to high)


[Intro] 

Use a clean tone
e|---------------------------------------------------------------------------|
B|-------17----15----15----15-------17----15----15/17------------------------|
G|-16-16----16----16----16----16-16----16----16------------------------------|
D|---------------------------------------------------------------------------|
A|---------------------------------------------------------------------------|
E|---------------------------------------------------------------------------|

e|---------------------------------------------------------------------------|
B|----17----15----15----15-------17----15------------------------------------|
G|-16----16----16----16----16-16----16----16-16/17---------------------------|
D|---------------------------------------------------------------------------|
A|---------------------------------------------------------------------------|
E|---------------------------------------------------------------------------|

e|---------------------------------------------------------------------------|
B|----17----15----15----15-------17----15----15/17---------------------------|
G|-16----16----16----16----16-16----16----16---------------------------------|
D|---------------------------------------------------------------------------|
A|---------------------------------------------------------------------------|
E|---------------------------------------------------------------------------|

e|---------------------------------------------------------------------------|
B|----17----15----15----15-------17----------15~-----------------------------|
G|-16----16----16----16----16-16----16-17-12---------------------------------|
D|---------------------------------------------------------------------------|
A|---------------------------------------------------------------------------|
E|---------------------------------------------------------------------------|
  

[Haunting riff]

e|---------------------------------------------------------------------------|
B|-o-------------------------------------------------------------------------|
G|--9-11-12-11-9-9-7-7---7----------9-11-12-11-9-9-7-7-----------------------|
D|---------------------9---9-9----7--------------------9-7-------------------|
A|-o---------------------------10--------------------------------------------|
E|---------------------------------------------------------------------------|
                                                           do riff twice
e|---------------------------------------------------------------------------|
B|---------------------------------------------------15~----------------o----|
G|-9-11-12-11-9-9-7-7---7-----------12-11-12~--14-16-------------------------|
D|--------------------9---9-9----7-------------------------------------------|
A|----------------------------10----------------------------------------o----|
E|---------------------------------------------------------------------------|
                                                           do riff twice
e|---------------------------------------------------------------------------|
B|-o--------------------------------------------------------------------o----|
G|----9-11-12-11-9-7-7-9-9-7-7-9-9-7----9-11-12-11-9-7-7-9-9-----------------|
D|--9---------------------------------9--------------------------------------|
A|-o--------------------------------------------------------------------o----|
E|---------------------------------------------------------------------------|

e|---------------------------------------------------------------------------|
B|---------------------------------------------------------------------------|
G|-16-16-16-16-14-12-11-----------------------------9-11-12-11-9-7-7-9-9-----|
D|----------------------12-14-14-12-12-14-14-12---9--------------------------|
A|---------------------------------------------------------------------------|
E|---------------------------------------------------------------------------|

e|---------------------------------------------------------------------------|
B|----------------------------------------------15---------------------------|
G|---9-11-12-11-9-7-7-7-9-7-7--12-11-12~--14-16------------------------------|
D|-9-------------------------------------------------------------------------|
A|---------------------------------------------------------------------------|
E|---------------------------------------------------------------------------|

e|---------------------------------------------------------------------------|
B|---------------------------------------------------------------------------|
G|---9-11-12-11-9-7-7-9-9-7-7-9-9-7---9-11-12-11-9-7-7-9-9-------------------|
D|-9--------------------------------9----------------------------------------|
A|---------------------------------------------------------------------------|
E|---------------------------------------------------------------------------|

e|---------------------------------------------------------------------------|
B|---------------------------------------------------------------------------|
G|---9-11-12-11-9-7-7-9-9-7-7-9-9-7---9-11-12-11-9-7-7-----------------------|
D|-9--------------------------------9------------------9-9----7~-------------|
A|---------------------------------------------------------10----------------|
E|---------------------------------------------------------------------------|
  Flip on distortion now
e|---------------------------------------------------------------------------|
B|-o-------------------------------------------------------------------------|
G|--9-11-12-11-9-9-7-7---7----------9-11-12-11-9-9-7-7-----------------------|
D|---------------------9---9-9----7--------------------9-7-------------------|
A|-o---------------------------10--------------------------------------------|
E|---------------------------------------------------------------------------|
                                                           do riff twice
e|---------------------------------------------------------------------------|
B|---------------------------------------------------15~----------------o----|
G|-9-11-12-11-9-9-7-7---7-----------12-11-12~--14-16-------------------------|
D|--------------------9---9-9----7-------------------------------------------|
A|----------------------------10----------------------------------------o----|
E|---------------------------------------------------------------------------|
                                                              do riff twice
e|---------------------------------------------------------------------------|
B|-o--------------------------------------------------------------------o----|
G|----9-11-12-11-9-7-7-9-9-7-7-9-9-7----9-11-12-11-9-7-7-9-9-----------------|
D|--9---------------------------------9--------------------------------------|
A|-o--------------------------------------------------------------------o----|
E|---------------------------------------------------------------------------|

e|---------------------------------------------------------------------------|
B|---------------------------------------------------------------------------|
G|-16-16-16-16-14-12-11----------------------------9-11-12-11-9-7-7-9-9------|
D|----------------------12-14-14-12-12-14-14-12--9---------------------------|
A|---------------------------------------------------------------------------|
E|---------------------------------------------------------------------------|

e|---------------------------------------------------------------------------|
B|---------------------------------------------------------------------------|
G|---9-11-12-11-9-7-7-9-9-7-7-9-9-7----------------7~------------------------|
D|-9-------------------------------------------7-9---------------------------|
A|-----------------------------------10-9-10~--------------------------------|
E|---------------------------------------------------------------------------|

e|---------------------------------------------------------------------------|
B|---------------------------------------------------------------------------|
G|---9-11-12-11-9-7-7-9-9-7-7-9-9-7---9-11-12-11-9-7-7-9-9-------------------|
D|-9--------------------------------9----------------------------------------|
A|---------------------------------------------------------------------------|
E|---------------------------------------------------------------------------|

e|---------------------------------------------------------------------------|
B|---------------------------------------------------------------------------|
G|---9-11-12-11-9-7-7-9-9-7-7-9-9-7---9-11-12-11-9-7-7-----------------------|
D|-9--------------------------------9------------------9-9----7~-------------|
A|---------------------------------------------------------10----------------|
E|---------------------------------------------------------------------------|
    do this riff twice
e|---------------------------------------------------------------------------|
B|o----------------------o---------------------------------------------------|
G|----9~---7-----------------------------------------------------------------|
D|-------9---7~-7h9~-5h7-----------------------------------------------------|
A|o7~--------------------o---------------------------------------------------|
E|---------------------------------------------------------------------------|
   do this riff four times
e|---------------------------------------------------------------------------|
B|o---------------------------------------o----------------------------------|
G|-----9-11-12-11-9-7-9-7---7-7---7------------------------------------------|
D|---9--------------------9-----9---7----7-----------------------------------|
A|o7----------------------------------10--o----------------------------------|
E|---------------------------------------------------------------------------|
  

[Solo](what i know of it)

e|---------------------------------------------------------------------------|
B|-15b-----------------------------------------------------------------------|
G|-----14--12-11-12----------------------------------------------------------|
D|------------------12-14--14-12-9-------------------------------------------|
A|---------------------------------12-10-7------9b-9b-7----------------------|
E|-----------------------------------------7-10------------------------------|

e|---------------------------------------------------------------------------|
B|--------------------------10----9h10---------------------------------------|
G|-9----11-12-11-9----9-9-9----12------9-9-8-7-------------------------------|
D|---12------------12--------------------------10-7---7----------------------|
A|--------------------------------------------------9------------------------|
E|---------------------------------------------------------------------------|
   do this part really fast up to...............here
e|-15-15-12----15-15-12-17-19-17-15-17-15-------15---------------------------|
B|----------15----------------------------17-15----17------------------------|
G|---------------------------------------------------------------------------|
D|---------------------------------------------------------------------------|
A|---------------------------------------------------------------------------|
E|---------------------------------------------------------------------------|

e|---------------------------------------------------------------------------|
B|-1/3-5-5-5-5-3-3---3-------------------------------------------------------|
G|-----------------6---------------------------------------------------------|
D|--------------------------2p0-0-4p0-0-5p0-0-7p0-0-4/2----------------------|
A|------------------------7--------------------------------------------------|
E|----------------------0----------------------------------------------------|
                                    repeat this riff eight times
e|---------------------------------------------------------------------------|
B|-o-------------------------------------------------------------------o-----|
G|--16-16-16-14-16-17-16-14-12-14-16-14-12-11---------------------12---------|
D|--------------------------------------------14-14-1-17-16-14-12----14------|
A|-o-------------------------------------------------------------------o-----|
E|---------------------------------------------------------------------------|

e|---------------------------------------------------------------------------|
B|---------------------------------------------------------------------------|
G|-999-121212-555-121212----12-----------------------------------------------|
D|-999-121212-555-121212-12-12-----------------------------------------------|
A|-777-101010-333-101010-12-10-----------------------------------------------|
E|-----------------------10--------------------------------------------------|
                          for the 9 and 10 on the g string use heavy vibrato
e|---4----------------------11-----------------------------------------------|
B|-5----10\\\///20\\\---9------9---------------------------------------------|
G|--------------------8---8------------------9-10----------------------------|
D|--------------------------------9-7--------------10-8-10-8-----------------|
A|------------------------------------10-9-7-----------------11-10-8---------|
E|---------------------------------------------------------------------------|
                                    repeat 4 times
e|---------------------------------------------------------------------------|
B|-o-------------------------------------------------------------------o-----|
G|--16-16-16-14-16-17-16-14-12-14-16-14-12-11---------------------12---------|
D|--------------------------------------------14-14-1-17-16-14-12----14------|
A|-o-------------------------------------------------------------------o-----|
E|---------------------------------------------------------------------------|

e|---------------------------------------------------------------------------|
B|---------------------------------------------------------------------------|
G|-9-11-12-14-12-11-12-11-9-7------12-14-16-14-12-14-12-11-9-7-9-------------|
D|----------------------------9-10-------------------------------------------|
A|---------------------------------------------------------------------------|
E|---------------------------------------------------------------------------|

e|---------------------------------------------------------------------------|
B|---------------------------------------------------------------------------|
G|-9-11-12-14-12-11-12-11-9-7-------12-14-12-14-16---------------------------|
D|----------------------------9-10-------------------------------------------|
A|---------------------------------------------------------------------------|
E|---------------------------------------------------------------------------|
     repeat 10 times
e|---------------------------------------------------------------------------|
B|-o-----------------------o-------------------------------------------------|
G|----------99---------------6-8---------------------------------------------|
D|--------5-99-12-12-11-12---6-8---------------------------------------------|
A|-o-7777-7-77-10-10--9-10-o-4-6---------------------------------------------|
E|---------------------------------------------------------------------------|
     repeat 7 times
e|---------------------------------------------------------------------------|
B|-o------------------------o------------------------------------------------|
G|-----------99---------------6-8----------99--------------------------------|
D|--------5--99-12-12-11-12---6-8-------5--99-12-12-11-12--------------------|
A|-o-7777-7--77-10-10--9-10-o-4-6--7777-7--77-10-10--9-10--------------------|
E|---------------------------------------------------------------------------|


e|---------------------------------------------------------------------------|
B|---------------------------------------------------------------------------|
G|-5-----7--9--5-----9--5-----7--9--5-----9----------------------------------|
D|-5--5--7--9--5--5--9--5--5--7--9--5--5--9----------------------------------|
A|-3--5--5--7--3--5--7--3--5--5--7--3--5--7----------------------------------|
E|----3-----------3--------3-----------3-------------------------------------|
      repeat 10 times
e|---------------------------------------------------------------------------|
B|-o------------------------o------------------------------------------------|
G|-----------99---------------6-8----------99--------------------------------|
D|--------5--99-12-12-11-12---6-8-------5--99-12-12-11-12--------------------|
A|-o-7777-7--77-10-10--9-10-o-4-6--7777-7--77-10-10--9-10--------------------|
E|---------------------------------------------------------------------------|

e|---------------------------------------------------------------------------|
B|---------------------------------------------------------------------------|
G|-5-----7--9--5-----9--5-----7--9--5-----9----------------------------------|
D|-5--5--7--9--5--5--9--5--5--7--9--5--5--9----------------------------------|
A|-3--5--5--7--3--5--7--3--5--5--7--3--5--7----------------------------------|
E|----3-----------3--------3-----------3-------------------------------------|
    repeat 12 or so times
e|---------------------------------------------------------------------------|
B|-o------------------------o------------------------------------------------|
G|-----------99--------------------------------------------------------------|
D|--------5--99-12-12-11-12--------------------------------------------------|
A|-o-7777-7--77-10-10--9-10-o------------------------------------------------|
E|---------------------------------------------------------------------------|

                                         repeat 4 times
e|---------------------------------------------------------------------------|
B|o--------------------------------------------------------o-----------------|
G|-9-9---9-9---9---9-11-9-9-11-12-11-9-7------14-12-11-9-7-------------------|
D|-----9-----9---9-----------------------10-9--------------------------------|
A|o--------------------------------------------------------o-----------------|
E|---------------------------------------------------------------------------|
   switch back to a clean tone
e|---------------------------------------------------------------------------|
B|-------17----15----15----15-------17----15----15/17------------------------|
G|-16-16----16----16----16----16-16----16----16------------------------------|
D|---------------------------------------------------------------------------|
A|---------------------------------------------------------------------------|
E|---------------------------------------------------------------------------|

e|---------------------------------------------------------------------------|
B|----17----15----15----15-------17----15------------------------------------|
G|-16----16----16----16----16-16----16----16-16/17---------------------------|
D|---------------------------------------------------------------------------|
A|---------------------------------------------------------------------------|
E|---------------------------------------------------------------------------|

e|---------------------------------------------------------------------------|
B|----17----15----15----15-------17----15----15/17---------------------------|
G|-16----16----16----16----16-16----16----16---------------------------------|
D|---------------------------------------------------------------------------|
A|---------------------------------------------------------------------------|
E|---------------------------------------------------------------------------|

e|---------------------------------------------------------------------------|
B|----17----15----15----15-------17----------15~-----------------------------|
G|-16----16----16----16----16-16----16-17-12---------------------------------|
D|---------------------------------------------------------------------------|
A|---------------------------------------------------------------------------|
E|---------------------------------------------------------------------------|

e|---------------------------------------------------------------------------|
B|---------------------------------------------------------------------------|
G|-9-11-12-11-9-9-7-7---7-----------9-11-12-11-9-9-7-7-----------------------|
D|--------------------9---9-9----7---------------------9-7-------------------|
A|----------------------------10---------------------------------------------|
E|---------------------------------------------------------------------------|

e|---------------------------------------------------------------------------|
B|--------------------------------------------------15~----------------------|
G|-9-11-12-11-9-9-7-7---7----------12-11-12~--14-16--------------------------|
D|--------------------9---9-9----7-------------------------------------------|
A|----------------------------10---------------------------------------------|
E|---------------------------------------------------------------------------|

e|---------------------------------------------------------------------------|
B|---------------------------------------------------------------------------|
G|---9-11-12-11-9-7-7-9-9-7-7-9-9-7---9-11-12-11-9-7-7-9-9-------------------|
D|-9--------------------------------9----------------------------------------|
A|---------------------------------------------------------------------------|
E|---------------------------------------------------------------------------|

e|---------------------------------------------------------------------------|
B|---------------------------------------------------------------------------|
G|---9-11-12-11-9-9-7-7-9-7-7-9-9-7----9-11-12-11-9-7-7----------------------|
D|-9---------------------------------9------------------9-9----7-------------|
A|----------------------------------------------------------10---------------|
E|---------------------------------------------------------------------------|

 
************************************

| h  Hammer-on
| p  Pull-off
| b  Bend
| /  Slide up
| \  Slide down
| ~  Vibrato

************************************

            
            
Suggest correction
Creating personal tab
Creating personal tab
You can edit any tab online and save it as your Personal.

You can edit, replace or remove any tab part or add personal notes – all changes will be seen only by you.

Personal tabs can be accessed anytime from any device, even offline.
Learn more »
comments
print report bad tab
2 comments total.
+5 reply
RobinHamelink 10 Apr 08, 2011 01:39 PM

as far as it is now, it is awesome. thanks for posting 5 stars.

0 reply
Disfemis 1,257 Jan 31, 2017 02:02 PM

Thank you for your great job! 5 stars for sure

guest
You may want to rate the tab now too:
select rating
Wanna post a correction for this tab? Suggest correction