Oops, an error
Loading. Please wait.

Where Eagles Dare tab

version 1
version 1

Whole song

27,414 views 27 this week
7 commentsread comments
1 2 3 4 5
x 20
add to favorites
×
Save as Personal and add changes to this tab that will be seen only by you. Learn more ›
×
You can save this tab as Personal to edit and correct it or add notes. All changes will be seen only by you. Learn more »
launch autoscroll
font size
0
reset
how to read this tab
guitar tuner
backing track
0:00
0:00
edit
Autoscroll
slow
fast
+/-
esc
set tempo
stop
Author
Unregistered
[Main-riff]
e|--------------|--------------|
B|--------------|--------------|
G|--------9--9--|--------7--7--|
D|--------9--9--|--------7--7--|
A|--------7--7--|--------5--5--|
E|--0-0-0-------|--0-0-0-------|

e|--------------|---------------|
B|--------------|---------------|
G|--------5--5--|---------------|
D|--------5--5--|--5-5-5--------|
A|--------3--3--|--3-3-3-3-2-0--|
E|--0-0-0-------|---------------|(x4)

[Riff 2]
e|---------------------|---------------------|
B|---------------------|---------------------|
G|---------------------|---------------------|
D|--4--------4---------|--5--------5---------|
A|--2--2-2-2-2--2-2-2--|--3--3-3-3-3--3-3-3--|
E|---------------------|---------------------|

e|---------------------|--------------------|
B|---------------------|--------------------|
G|---------------------|--------------------|
D|--4--------4---------|--5--5--5--7--7--7--|
A|--2--2-2-2-2--2-2-2--|--3--3--3--5--5--5--|
E|---------------------|--------------------|

[Main-riff]
e|--------------|--------------|
B|--------------|--------------|
G|--------9--9--|--------7--7--|
D|--------9--9--|--------7--7--|
A|--------7--7--|--------5--5--|
E|--0-0-0-------|--0-0-0-------|

e|--------------|---------------|
B|--------------|---------------|
G|--------5--5--|---------------|
D|--------5--5--|--5-5-5--------|
A|--------3--3--|--3-3-3-3-2-0--|
E|--0-0-0-------|---------------|(x2)

[Verse]
[It's snowning outside the rumbling...
e|--------------|--------------|
B|--------------|--------------|
G|--------9--9--|--------7--7--|
D|--------9--9--|--------7--7--|
A|--------7--7--|--------5--5--|
E|--0-0-0-------|--0-0-0-------|

 ..sound of engines roar in the...
e|E--------------|---------------|
B|--------------|---------------|
G|--------5--5--|---------------|
D|--------5--5--|--5-5-5--------|
A|--------3--3--|--3-3-3-3-2-0--|
E|--0-0-0-------|---------------|

 ...night
e|-----------------------|-----------------------|
B|-----------------------|-----------------------|
G|-----------------------|-----------------------|
D|-----------------------|--------------5--4-----|
A|--2-2-2-2-2-2-5--7--7--|--2-2-2-2-2-2-3--2--5--|
E|--0-0-0-0-0-0-3--5--5--|--0-0-0-0-0-0-------3--|(x2)

[Chorus]
 ..goes on         but still they must..
e|--------------------------------------|
B|--------------------------------------|
G|--------------------------------------|
D|--5--------5--------5--------5--4--5--|
A|--3--3-3-3-3--3-3-3-3--3-3-3-3--2--3--|
E|--------------------------------------|

 ..fly                    No one should...
e|--------------------------------------|
B|--------------------------------------|
G|--------------------------------------|
D|--7--------7--------7--------4--5--7--|
A|--5--5-5-5-5--5-5-5-5--5-5-5-2--3--5--|
E|--------------------------------------|

 ..go                       where eagles..
e|--------------------------------------|
B|--------------------------------------|
G|--------------------------------------|
D|--5--------5--------5--------5--4--5--|
A|--3--3-3-3-3--3-3-3-3--3-3-3-3--2--3--|
E|--------------------------------------|

 ..dare
e|------------------------------|
B|------------------------------|
G|------------------------------|
D|--7--------7--------4---5--7--|
A|--5--5-5-5-5--5-5-5-2---3--5--|
E|------------------------------|
End of chorus.

[Verse]
[It's snowning outside the rumbling...
e|--------------|--------------|
B|--------------|--------------|
G|--------9--9--|--------7--7--|
D|--------9--9--|--------7--7--|
A|--------7--7--|--------5--5--|
E|--0-0-0-------|--0-0-0-------|

 ..sound of engines roar in the...
e|E--------------|---------------|
B|--------------|---------------|
G|--------5--5--|---------------|
D|--------5--5--|--5-5-5--------|
A|--------3--3--|--3-3-3-3-2-0--|
E|--0-0-0-------|---------------|

 ...night
e|-----------------------|-----------------------|
B|-----------------------|-----------------------|
G|-----------------------|-----------------------|
D|-----------------------|--------------5--4-----|
A|--2-2-2-2-2-2-5--7--7--|--2-2-2-2-2-2-3--2--5--|
E|--0-0-0-0-0-0-3--5--5--|--0-0-0-0-0-0-------3--|(x2)

[Chorus]
 ..goes on         but still they must..
e|--------------------------------------|
B|--------------------------------------|
G|--------------------------------------|
D|--5--------5--------5--------5--4--5--|
A|--3--3-3-3-3--3-3-3-3--3-3-3-3--2--3--|
E|--------------------------------------|

 ..fly                    No one should...
e|--------------------------------------|
B|--------------------------------------|
G|--------------------------------------|
D|--7--------7--------7--------4--5--7--|
A|--5--5-5-5-5--5-5-5-5--5-5-5-2--3--5--|
E|--------------------------------------|

 ..go                       where eagles..
e|--------------------------------------|
B|--------------------------------------|
G|--------------------------------------|
D|--5--------5--------5--------5--4--5--|
A|--3--3-3-3-3--3-3-3-3--3-3-3-3--2--3--|
E|--------------------------------------|

 ..dare
e|------------------------------|
B|------------------------------|
G|------------------------------|
D|--7--------7--------4---5--7--|
A|--5--5-5-5-5--5-5-5-2---3--5--|
E|------------------------------|
End of chorus.

[Riff 3]
e|---------------------------------------|
B|---------------------------------------|
G|--9-9-9-9-----------9-9-9-7-7-7-7-7-7--|
D|--9-9-9-9-----------9-9-9-7-7-7-7-7-7--|
A|--7-7-7-7-----------7-7-7-5-5-5-5-5-5--|
E|-----------0-0-0-0-0-------------------|

e|---------------------------------------|
B|---------------------------------------|
G|--9-9-9-9-----------9-9-9-7-7-7-9-9-9--|
D|--9-9-9-9-----------9-9-9-7-7-7-9-9-9--|
A|--7-7-7-7-----------7-7-7-5-5-5-7-7-7--|
E|-----------0-0-0-0-0-------------------|

e|----------------------------------------|
B|----------------------------------------|
G|--7-7-7-7------------7-7-7-4-4-4-7-7-7--|
D|--7-7-7-7------------7-7-7-4-4-4-7-7-7--|
A|--5-5-5-5------------5-5-5-2-2-2-5-5-5--|
E|-----------0-0-0-0-0--------------------|

e|---------------------------------------|
B|---------------------------------------|
G|--9-9-9-9-----------9-9-9-7-7-7-7-7-7--|
D|--9-9-9-9-----------9-9-9-7-7-7-7-7-7--|
A|--7-7-7-7-----------7-7-7-5-5-5-5-5-5--|
E|-----------0-0-0-0-0-------------------|(x4)
End of riff 3.

[Solo-riff]
e|----------------------|----------------------|
B|----------------------|----------------------|
G|----------------------|----------------------|
D|--2-------------------|--5-------------------|
A|--2-------------------|--5-------------------|
E|--0-------------------|--3-------------------|(x10)

[Riff 4]
e|-------------------------------------------|
B|-------------------------------------------|
G|-------------------------------------------|
D|-------------------------------------------|
A|-------------------------------------------|
E|--0--0-3-0-0-0--0-3-0-0-0--0-3-0-0-5--0-3--|(x4)

[Riff 5]
e|------------------------------------------------|
B|------------------------------------------------|
G|------------------------------------------------|
D|-----------------------------------------2------|
A|-----------------------------------0-2-4---4-2--|
E|--2--2-5-2-2-2--2-5-2-2-2--2-5-2-2--------------|(x2)

[Riff 4]
e|-------------------------------------------|
B|-------------------------------------------|
G|-------------------------------------------|
D|-------------------------------------------|
A|-------------------------------------------|
E|--0--0-3-0-0-0--0-3-0-0-0--0-3-0-0-5--0-3--|(x2)

[Riff 3]
e|---------------------------------------|
B|---------------------------------------|
G|--9-9-9-9-----------9-9-9-7-7-7-7-7-7--|
D|--9-9-9-9-----------9-9-9-7-7-7-7-7-7--|
A|--7-7-7-7-----------7-7-7-5-5-5-5-5-5--|
E|-----------0-0-0-0-0-------------------|

e|---------------------------------------|
B|---------------------------------------|
G|--9-9-9-9-----------9-9-9-7-7-7-9-9-9--|
D|--9-9-9-9-----------9-9-9-7-7-7-9-9-9--|
A|--7-7-7-7-----------7-7-7-5-5-5-7-7-7--|
E|-----------0-0-0-0-0-------------------|

e|----------------------------------------|
B|----------------------------------------|
G|--7-7-7-7------------7-7-7-4-4-4-7-7-7--|
D|--7-7-7-7------------7-7-7-4-4-4-7-7-7--|
A|--5-5-5-5------------5-5-5-2-2-2-5-5-5--|
E|-----------0-0-0-0-0--------------------|

e|---------------------------------------|
B|---------------------------------------|
G|--9-9-9-9-----------9-9-9-7-7-7-7-7-7--|
D|--9-9-9-9-----------9-9-9-7-7-7-7-7-7--|
A|--7-7-7-7-----------7-7-7-5-5-5-5-5-5--|
E|-----------0-0-0-0-0-------------------|(x4)
End of riff 3.

[Main-riff]
e|--------------|--------------|
B|--------------|--------------|
G|--------9--9--|--------7--7--|
D|--------9--9--|--------7--7--|
A|--------7--7--|--------5--5--|
E|--0-0-0-------|--0-0-0-------|

e|--------------|---------------|
B|--------------|---------------|
G|--------5--5--|---------------|
D|--------5--5--|--5-5-5--------|
A|--------3--3--|--3-3-3-3-2-0--|
E|--0-0-0-------|---------------|(x4)

[Riff 2]
e|---------------------|---------------------|
B|---------------------|---------------------|
G|---------------------|---------------------|
D|--4--------4---------|--5--------5---------|
A|--2--2-2-2-2--2-2-2--|--3--3-3-3-3--3-3-3--|
E|---------------------|---------------------|

e|---------------------|--------------------|
B|---------------------|--------------------|
G|---------------------|--------------------|
D|--4--------4---------|--5--5--5--7--7--7--|
A|--2--2-2-2-2--2-2-2--|--3--3--3--5--5--5--|
E|---------------------|--------------------|

[Verse]
[It's snowning outside the rumbling...
e|--------------|--------------|
B|--------------|--------------|
G|--------9--9--|--------7--7--|
D|--------9--9--|--------7--7--|
A|--------7--7--|--------5--5--|
E|--0-0-0-------|--0-0-0-------|

 ..sound of engines roar in the...
e|E--------------|---------------|
B|--------------|---------------|
G|--------5--5--|---------------|
D|--------5--5--|--5-5-5--------|
A|--------3--3--|--3-3-3-3-2-0--|
E|--0-0-0-------|---------------|

 ...night
e|-----------------------|-----------------------|
B|-----------------------|-----------------------|
G|-----------------------|-----------------------|
D|-----------------------|--------------5--4-----|
A|--2-2-2-2-2-2-5--7--7--|--2-2-2-2-2-2-3--2--5--|
E|--0-0-0-0-0-0-3--5--5--|--0-0-0-0-0-0-------3--|(x2)

[Chorus]
 ..goes on         but still they must..
e|--------------------------------------|
B|--------------------------------------|
G|--------------------------------------|
D|--5--------5--------5--------5--4--5--|
A|--3--3-3-3-3--3-3-3-3--3-3-3-3--2--3--|
E|--------------------------------------|

 ..fly                    No one should...
e|--------------------------------------|
B|--------------------------------------|
G|--------------------------------------|
D|--7--------7--------7--------4--5--7--|
A|--5--5-5-5-5--5-5-5-5--5-5-5-2--3--5--|
E|--------------------------------------|

 ..go                       where eagles..
e|--------------------------------------|
B|--------------------------------------|
G|--------------------------------------|
D|--5--------5--------5--------5--4--5--|
A|--3--3-3-3-3--3-3-3-3--3-3-3-3--2--3--|
E|--------------------------------------|

 ..dare
e|------------------------------|
B|------------------------------|
G|------------------------------|
D|--7--------7--------4---5--7--|
A|--5--5-5-5-5--5-5-5-2---3--5--|
E|------------------------------|
End of chorus.

[Verse]
[It's snowning outside the rumbling...
e|--------------|--------------|
B|--------------|--------------|
G|--------9--9--|--------7--7--|
D|--------9--9--|--------7--7--|
A|--------7--7--|--------5--5--|
E|--0-0-0-------|--0-0-0-------|

 ..sound of engines roar in the...
e|E--------------|---------------|
B|--------------|---------------|
G|--------5--5--|---------------|
D|--------5--5--|--5-5-5--------|
A|--------3--3--|--3-3-3-3-2-0--|
E|--0-0-0-------|---------------|

 ...night
e|-----------------------|-----------------------|
B|-----------------------|-----------------------|
G|-----------------------|-----------------------|
D|-----------------------|--------------5--4-----|
A|--2-2-2-2-2-2-5--7--7--|--2-2-2-2-2-2-3--2--5--|
E|--0-0-0-0-0-0-3--5--5--|--0-0-0-0-0-0-------3--|(x2)

[Chorus]
 ..goes on         but still they must..
e|--------------------------------------|
B|--------------------------------------|
G|--------------------------------------|
D|--5--------5--------5--------5--4--5--|
A|--3--3-3-3-3--3-3-3-3--3-3-3-3--2--3--|
E|--------------------------------------|

 ..fly                    No one should...
e|--------------------------------------|
B|--------------------------------------|
G|--------------------------------------|
D|--7--------7--------7--------4--5--7--|
A|--5--5-5-5-5--5-5-5-5--5-5-5-2--3--5--|
E|--------------------------------------|

 ..go                       where eagles..
e|--------------------------------------|
B|--------------------------------------|
G|--------------------------------------|
D|--5--------5--------5--------5--4--5--|
A|--3--3-3-3-3--3-3-3-3--3-3-3-3--2--3--|
E|--------------------------------------|

 ..dare
e|------------------------------|
B|------------------------------|
G|------------------------------|
D|--7--------7--------4---5--7--|
A|--5--5-5-5-5--5-5-5-2---3--5--|
E|------------------------------|
End of chorus.

[Main-riff]
e|--------------|--------------|
B|--------------|--------------|
G|--------9--9--|--------7--7--|
D|--------9--9--|--------7--7--|
A|--------7--7--|--------5--5--|
E|--0-0-0-------|--0-0-0-------|

e|--------------|---------------|
B|--------------|---------------|
G|--------5--5--|---------------|
D|--------5--5--|--5-5-5--------|
A|--------3--3--|--3-3-3-3-2-0--|
E|--0-0-0-------|---------------|(x4)

[Riff 2]
e|---------------------|---------------------|
B|---------------------|---------------------|
G|---------------------|---------------------|
D|--4--------4---------|--5--------5---------|
A|--2--2-2-2-2--2-2-2--|--3--3-3-3-3--3-3-3--|
E|---------------------|---------------------|

e|---------------------|--------------------|
B|---------------------|--------------------|
G|---------------------|--------------------|
D|--4--------4---------|--5--5--5--7--7--7--|
A|--2--2-2-2-2--2-2-2--|--3--3--3--5--5--5--|
E|---------------------|--------------------|

[Lyrics]
It's snowing outside the rumbling sound
of engines roar in the night,
The mission is near the condident men
are waiting to drop from the sky.

The blizzard goes on but still they must fly
No one should go where eagles dare

Bavarian alps that lay all around
they seem to stare from below,
The enemy lines a long time passed
are lying deep in the snow.

Into the night they fall through the sky
No one should fly where eagles dare.

They're closing in the fortress is near
it's standing high in the sky,
The cable car's the only way in
it's really impossible to climb.

They make their way but maybe too late
They've got to try to save the day.

The panicking cries the roaring of guns
are echoing all around the valley,
The mission complete they make to escape
away from the Eagles Nest.

They dared to go where no one would try
they chose to fly where eagles dare.

OSKAR WIGREN 1996-12-26
Suggest correction
Creating personal tab
Creating personal tab
You can edit any tab online and save it as your Personal.

You can edit, replace or remove any tab part or add personal notes – all changes will be seen only by you.

Personal tabs can be accessed anytime from any device, even offline.
Learn more »
comments
print report bad tab
7 comments total. Showing first comments.
0 reply
Metal25 70 May 19, 2004 08:00 PM

Good Tab

0 reply
zaccy 201 Jul 28, 2005 08:00 PM

very accurate. well done.

0 reply
zaccy 201 Jul 29, 2005 08:00 PM

though there sounds like a harmonized sort of part on 'Riff 3'

|-------------------------------|
|-------------------------------|
|-12-12-12-11-11-11-11-12-12-12-|
|-x--x--x--x--x--x--x--x--x--x--|
|-10-10-10-9--9--9--9--10-10-10-|
|-------------------------------|

|---------------------------------|
|---------------------------------|
|-12-12-12-11-11-11-11-12-12-11-11|
|-x--x--x--x--x--x--x--x--x--x--x-|
|-10-10-10-9--9--9--9--10-10-9--9-|
|---------------------------------|

|-----------------------------|
|-----------------------------|
|-11-11-11-7-7-11-11-12-12-12-|
|-x--x--x--x-x-x--x--x--x--x--|
|-9--9--9--5-5-9--9--10-10-10-|
|-----------------------------|

play it over Riff 3's rhythm. it fits in quite good.

guest
Wanna post a correction for this tab? Suggest correction