Oops, an error
Loading. Please wait.

Wrathchild bass

version 3
version 3
2,053 views 1 this week
no commentswrite comment
1 2 3 4 5
1 last vote to show rating
add to favorites
×
Save as Personal and add changes to this tab that will be seen only by you. Learn more ›
×
You can save this tab as Personal to edit and correct it or add notes. All changes will be seen only by you. Learn more »
launch autoscroll
font size
0
reset
guitar tuner
backing track
0:00
0:00
edit
Autoscroll
slow
fast
+/-
esc
set tempo
stop
Author
Difficulty
IRON MAIDEN
Wrathchild                               




                                                                         
G||----------------------------------|----------------------------------|
D||----------------------------------|------------------5-5-4-5-7-5-4-0-|
A||--5h7-------------5h7-------------|--5h7-7-7-------------------------|
E||------0-0-0-0-0-0-----0-0-0-0-0-0-|----------0-0-0-0-----------------|


                                                                  
-------------------------------|---------------------------------|
-------------------------------|-----------------5-5-4-5-7-5-4-0-|
--5-7-7-7-7--7--5-7-7-7-7--7-7-|--5-7-7-7-7--7-7-----------------|
-------------------------------|---------------------------------|


                                                                   
--------------------------------|---------------------------------|
--------------------------------|-----------------5-5-4-5-7-5-4-0-|
--5-7-7-7-7--7-7-5-7-7-7-7--7-7-|--5-7-7-7-7-7--7-----------------|
--------------------------------|---------------------------------|


                                                                  
-------------------------------|---------------------------------|
-------------------------------|-----------------5-5-4-5-7-5-4-0-|
--5-7-7-7-7---7-5-7-7-7-7--7-7-|--5-7-7-7-7--7-7-----------------|
-------------------------------|---------------------------------|


                                                                 
-------------------------------|--------------------------------|
-------------------------------|----------------5-5-4-5-7-5-4-0-|
--5-7-7-7-7--7-7-5-7-7-7-7---7-|--5-7-7-7-7--7------------------|
-------------------------------|--------------------------------|


                                                                  
-------------------------------|---------------------------------|
-------------------------------|-----------------------------0---|
----------------------------9--|--5-7-7-7-7--7-7-5-7-7---7-------|
--8---8-8-8-8-8-8-7--7-7-7-----|-----------------------5---5---5-|


                                                             
---------------------------|--------------------------------|
---------------------------|-----------------------------0--|
---------------------------|--5-7-7-7-7--7-7-5-7-7---7------|
--8---8-8--8-8-7---7-7---7-|-----------------------5---5----|


                                                               
-----------------------------|--------------------------------|
-----------------------------|--5--5-5-5--5-5-4-4-4-4-4-4-----|
-----------------------------|----------------------------4-4-|
--8-8-8-8-8---8-7---7-7--7-7-|--------------------------------|


                                                               
-----------------------------|--------------------------------|
----------------------5-4-0--|--------------------------------|
-----------------------------|--5-7-7-7-7--7-7-5-7-7-7-7--7-7-|
--8-8-8-8-8---8-7--7---------|--------------------------------|


                                                                   
---------------------------------|--------------------------------|
-----------------5-5-4-5-7-5-4-0-|--------------------------------|
--5-7-7-7-7--7-7-----------------|--5-7-7-7-7--7-7-5-7-7-7-7--7-7-|
---------------------------------|--------------------------------|


                                                               
--------------------------------|-----------------------------|
-----------------5-5-4-5-7-5-4--|-----------------------------|
--5-7-7-7-7--7-7----------------|--7--7-7-7---7-7-5---5----5--|
--------------------------------|-------------------7----7----|


                                                             
------------------------------|-----------------------------|
----------------5-6-7---------|-----------------------------|
--7--7-7-7--7-7-------5----5--|--7--7-7-7---7-7-5---5----5--|
-------------------------7----|-------------------7----7----|


                                                             
-----------------------------|------------------------------|
-----------------------------|------------------------------|
--3-3-3-3-3----3--3----3--3--|--5-5-5-5-5----5--5----5--5-5-|
-------------3-------3-------|-------------5-------5--------|


                                                            
----------------------------|------------------------------|
----------------------------|------------------------------|
--7-5---5-----5-------------|--5-7-7-7-7--7-7-5-7--7-7---7-|
------7----7-----7--6-5--3--|------------------------------|


                                                                   
--------------7-7-9-9-9-9-7-------|-------------------------------|
--------5-6-7---------------------|-------------------------------|
--5-7-----------------------14-12-|--5-7--7-7--7-7-5-7-7-7-7--7-7-|
----------------------------------|-------------------------------|


                                                                  
---------------------------------|-------------------------------|
--------5-6-7---9-7-12-9-9-8-7-5-|-------------------------------|
--5-7---------7------------------|--5-7--7-7--7-7-5-7-7-7-7--7-7-|
---------------------------------|-------------------------------|


                                                                    
----------------9-9-9-7-----------|--------------------------------|
------------------------9-7-------|--------------------------------|
--5-7-7-7-7--7--------------9-7-5-|--5-7-7-7-7--7-7-5-7-7-7-7--7-7-|
----------------------------------|--------------------------------|


                                                                  
-----------------------------------|-----------------------------|
-------------------5-5-4-5-7-5-4-0-|-----------------------------|
--5-7-7-7-7-7--7-7-----------------|--3-3-3-3-3----3--3----3--3--|
-----------------------------------|-------------3-------3-------|


                                                                      
-----------------------------|----------------------------|----------|
-----------------------------|----------------------------|----------|
--5-5-5-5-5----5--5----5--5--|--7-5---5-----5-------------|----------|
-------------5-------5-------|------7----7-----7--6-5--3--|----------|


                                                               
-------------------------------|------------------------------|
-------------------------------|------------------------------|
---------5------5------------0-|---------5------5-------------|
--7-7--7---7--7---7-6-5-3-0----|--7-7--7---7--7---7-6-5-3-0---|


                                                                
-------------------------------|-------------------------------|
-------------------------------|-------------------------------|
---------5------5------------0-|---------5------5--------------|
--7-7--7---7--7---7-6-5-3-0----|--7-7--7---7--7---7-6-5-3-0--7-|


                                                                
-------------------------------|-------------------------------|
---------2------2--------------|---------2------2--------------|
--4-4--4---4--4---4-3-2------2-|--4-4--4---4--4---4-3-2-0----3-|
------------------------5-2----|--------------------------2----|


                                                              
------------------------------|------------------------------|
---------3------3-------------|---------3------3-------------|
--5-5--5---5--5---5-4-3-1-----|--5-5--5---5--5---5-4-3-1-----|
--------------------------3---|--------------------------3---|


                                                               
----------------------------|---------------------------------|
----------------------------|---------------------------------|
--7-5---5-----5-------------|--5-7-7-7-7--7-7-5-7-7-7-7-7-7-7-|
------7----7-----7--6-5--3--|---------------------------------|


                                                                     
---------------------------------|----------------------------------|
------------------5-5-4-5-7-5-4--|----------------------------------|
--5-7-7-7-7-7-7-7----------------|--5-7-7-7-7-7-7-7-5-7-7-7-7-7-7-7-|
---------------------------------|----------------------------------|


                                                                   
----------------------------------|-------------------------------|
------------------5-5-4-5-7-5-4-0-|-------------------------------|
--5-7-7-7-7-7-7-7-----------------|--5-7-7-7-7---7-5-7-7-7-7--7-7-|
----------------------------------|-------------------------------|


                                                                  
--------------------------------|--------------------------------|
----------------5-5-4-5-7-5-4-0-|--------------------------------|
--5-7-7-7-7--7------------------|--5-7-7-7-7--7-7-5-7-7-7-7--7-7-|
--------------------------------|--------------------------------|


                                                                
--------------------------------|------------------------------|
----------------5-5-4-5-7-5-4-0-|------------------------------|
--5-7--7-7-7-7------------------|--3-3--3-3--3-3-2--2-2-2--9-9-|
--------------------------------|------------------------------|


                                                                 
---------------------------------|------------------------------|
-----------------------------0---|------------------------------|
--5-7-7-7-7--7-7-5-7-7---7-------|--3-3-3-3-3---3-2-2-2-2-2---2-|
-----------------------5---5---5-|------------------------------|


                                                                 
---------------------------------|------------------------------|
---------------------------------|------------------------------|
--5-7-7-7-7--7-7-5-7-7-7-7---0-5-|--3--3-3-3--3-3-2-2-2-2-2---2-|
---------------------------5-----|------------------------------|


                                                               
-------------------------------|------------------------------|
--5--5-5-5--5-5-4-4-4-4-4------|-----------------------5-4----|
--------------------------4-1--|--3--3-3-3--3-3-2-2-2------5--|
-------------------------------|------------------------------|


                                                                   
--------------------------------|---------------------------------|
--------------------------------|-----------------5-5-4-5-7-5-4-0-|
--5-7-7-7-7--7-7-5-7-7-7-7--7-7-|--5-7-7-7-7-7-7------------------|
--------------------------------|---------------------------------|


                                                                   
--------------------------------|---------------------------------|
--------------------------------|-----------------5-5-4-5-7-5-4-0-|
--5-7-7-7-7--7-7-5-7-7-7-7--7-7-|--5-7-7-7-7-7-7------------------|
--------------------------------|---------------------------------|


                                                              
------------------------------|------------------------------|
------------------------------|----------------5-6-7---------|
--5-7-7-7-7---7-7-5---5----5--|--7-7-7-7-7--7--------5----5--|
--------------------7----7----|-------------------------7----|


                                                            
-----------------------------|-----------------------------|
-----------------------------|-----------------------------|
--7--7-7-7--7--7-5---5----5--|--3-3-3-3-3----3--3----3--3--|
-------------------7----7----|-------------3-------3-------|


                                                           
-----------------------------|----------------------------|
-----------------------------|----------------------------|
--5-5-5-5-5----5--5----5--5--|--7-5---5-----5-------------|
-------------5-------5-------|------7----7-----7--6-5--3--|


                                                                              
----------------------------|----------------------------|------------------
----------------------------|----------------------------|------------------
--7-5---5-----5-------------|--7-5---5-----5-------------|------------------
------7----7-----7--6-5--3--|------7----7-----7--6-5--3--|--0---------------


                                       
Tabbed by Ed_Hunter



            
            
Suggest correction
Creating personal tab
Creating personal tab
You can edit any tab online and save it as your Personal.

You can edit, replace or remove any tab part or add personal notes – all changes will be seen only by you.

Personal tabs can be accessed anytime from any device, even offline.
Learn more »
Give kudos to tab author, rate the tab!
1 2 3 4 5
comments
print report bad tab
guest
You may want to rate the tab now too:
select rating
Wanna post a correction for this tab? Suggest correction