Oops, an error
Loading. Please wait.

Wrathchild bass

version 4
version 4
466 views 1 this week
no commentswrite comment
1 2 3 4 5
x 12
add to favorites
×
Save as Personal and add changes to this tab that will be seen only by you. Learn more ›
×
You can save this tab as Personal to edit and correct it or add notes. All changes will be seen only by you. Learn more »
launch autoscroll
font size
0
reset
guitar tuner
backing track
0:00
0:00
edit
Autoscroll
slow
fast
+/-
esc
set tempo
stop
Author
Difficulty
                                  Wrathchild      
                              

                                  Iron Maiden

Steve Harris



          Intro                                 
          >                   >                 
     S    S     S S S S S S S S  S S S S S S S  
G||----|---------------------------------------|
D||----|---------------------------------------|
A||----|--5h----7-7-7---------5h-7-7-7---------|
E||----|--------------0-0-0-0----------0-0-0-0-|


                                        Riff A                               
  >                                     >            >      >        >       
  S  S S S S S S S S S  S S S  S S S    S      S S S E  S S S  S S S E  S S  
-------------------------------------|--------------------------------------|
-------------------5-5p-4-5-7p-5-4-0-|--------------------------------------|
--5h-7-7-7---------------------------|--5h-----7-7-7-7--7-7-5h-7-7-7-7--7-7-|
-----------0-0-0-0-------------------|--------------------------------------|


  >        >                           >        >      >        >       
  S  S S S E  S S S S  S S S  S S S    S  S S S E  S S S  S S S E  S S  
------------------------------------|----------------------------------|
------------------5-5p-4-5-7p-5-4-0-|----------------------------------|
--5h-7-7-7-7--7-7-------------------|--5h-7-7-7-7--7-7-5h-7-7-7-7--7-7-|
------------------------------------|----------------------------------|


  >        >                         
  S  S S S E  S S S S  S S S  S S S  
------------------------------------|
------------------5-5p-4-5-7p-5-4-0-|
--5h-7-7-7-7--7-7-------------------|
------------------------------------|


  Verso Riff 1                               
  >                  >      >        >       
  S            S S S E  S S S  S S S E  S S  
--------------------------------------------|
--------------------------------------------|
--5h-----------7-7-7-7--7-7-5h-7-7-7-7--7-7-|
--------------------------------------------|


  >        >                           >        >      >        >       
  S  S S S E  S S S S  S S S  S S S    S  S S S E  S S S  S S S E  S S  
------------------------------------|----------------------------------|
------------------5-5p-4-5-7p-5-4-0-|----------------------------------|
--5h-7-7-7-7--7-7-------------------|--5h-7-7-7-7--7-7-5h-7-7-7-7--7-7-|
------------------------------------|----------------------------------|


                                       Verso Riff 2                          
  >        >                                                                 
  S  S S S E  S S S S  S S S  S S S    E            S S E  S S E  S S E  E   
------------------------------------|---------------------------------------|
------------------5-5p-4-5-7p-5-4-0-|---------------------------------------|
--5h-7-7-7-7--7-7-------------------|--3------------3-3-3--3-3-2--2-2-2--2--|
------------------------------------|---------------------------------------|


  >        >      >             >                                
  S  S S S E  S S S  S S S S  S E     E  S S E  E  E  S S E  E   
-----------------------------------|----------------------------|
-----------------------------------|----------------------------|
--5h-7-7-7-7--7-7-5h-7-7-7-3h-5-5--|--3--3-3-3--3--2--2-2-2--2--|
-----------------------------------|----------------------------|


                                      Pre-Coro                          
  >        >      >             >                                       
  S  S S S E  S S S  S S S S  S E     E        S S E  S S E  S S E  E   
-----------------------------------|-----------------------------------|
-----------------------------------|-----------------------------------|
--5h-7-7-7-7--7-7-5h-7-7-7-3h-5-5--|--3--------3-3-3--3-3-2--2-2-2--2--|
-----------------------------------|-----------------------------------|


  E  S S E  E  S S S S S S E     E  S S E  E  S S S S S S S S  
------------------------------|-------------------------------|
--5--5-5-5--5--4-4-4-4-5------|-----------------------4-5-4---|
-------------------------5-2--|--3--3-3-3--3--2-2-2---------5-|
------------------------------|-------------------------------|


  Riff A                                                                    
  >            >      >        >         >        >                         
  S      S S S E  S S S  S S S E  S S    S  S S S E  S S S S  S S S  S S S  
--------------------------------------|------------------------------------|
--------------------------------------|------------------5-5p-4-5-7p-5-4-0-|
--5h-----7-7-7-7--7-7-5h-7-7-7-7--7-7-|--5h-7-7-7-7--7-7-------------------|
--------------------------------------|------------------------------------|


  >        >      >        >         >        >                         
  S  S S S E  S S S  S S S E  S S    S  S S S E  S S S S  S S S  S S S  
----------------------------------|------------------------------------|
----------------------------------|------------------5-5p-4-5-7p-5-4-0-|
--5h-7-7-7-7--7-7-5h-7-7-7-7--7-7-|--5h-7-7-7-7--7-7-------------------|
----------------------------------|------------------------------------|


  Coro                                                          
  >         >                       >      >                    
  S    S E  E.  S S  S S E  S E     S S E  E.  S S S S E  S E   
---------------------------------|-----------------------------|
---------------------------------|---------------5-6-7---------|
--5----7-7--7-----7p-5---5----5--|--5-7-7--7-----------5----5--|
-----------------------7----7----|------------------------7----|


                                  Puente                           
  >       >                                                        
  S  S E  E.  S S  S S E  S E     S      S S S E  S E  E  S E  E   
-------------------------------|----------------------------------|
-------------------------------|----------------------------------|
--5h-7-7--7-----7p-5---5----5--|--3------3-3-3-3----3--3----3--3--|
---------------------7----7----|------------------3-------3-------|


  S S S S E  S E  E  S E  E     S  S S E  E  E  E  S E  E   
-----------------------------|-----------------------------|
-----------------------------|-----------------------------|
--5-5-5-5-5----5--5----5--5--|--7p-5---5-----5-------------|
-------------5-------5-------|-------7----7-----7--6-5--3--|


  Solo Dave Murray                               
  >                      >      >        >       
  S                S S S E  S S S  S S S E  S S  
------------------------------------------------|
------------------------------------------------|
--5h---------------7-7-7-7--7-7-5h-7-7-7-7--7-7-|
------------------------------------------------|


  >        >                         >        >      >        >       
  S  S S S S S S S S S S S S S E     S  S S S E  S S S  S S S E  S S  
-------------------9-9-9-9-9-7----|----------------------------------|
-------------7-9---------------9--|----------------------------------|
--5h-7-7-7-7----------------------|--5h-7-7-7-7--7-7-5h-7-7-7-7--7-7-|
----------------------------------|----------------------------------|


  >        >                           >        >     >        >       
  S  S S S S S S S S S S S S S S. T    S  S S S E  E  S  S S S E  S S  
-------------------9-----7-----5----|---------------------------------|
-------------7-9-9---7-7---5-5------|---------------------------------|
--5h-7-7-7-7------------------------|--5h-7-7-7----7--5h-7-7-7--------|
------------------------------------|-----------0--------------0--0-0-|


  >        >                           >        >      >        >       
  S  S S S E  S S T T S S S S S S S    S  S S S E  S S S  S S S E  S S  
------------------9-9-9-7-----------|----------------------------------|
--------------------------9-8-7-5---|----------------------------------|
--5h-7-7-7----0-0-------------------|--5h-7-7-7-7--7-7-5h-7-7-7-7--7-7-|
-----------0------------------------|----------------------------------|


                                       Puente                           
  >        >                                                            
  S  S S S E  S S S S  S S S  S S S    S      S S S E  S E  E  S E  E   
------------------------------------|----------------------------------|
------------------5-5p-4-5-7p-5-4-0-|----------------------------------|
--5h-7-7-7-7--7-7-------------------|--3------3-3-3-3----3--3----3--3--|
------------------------------------|------------------3-------3-------|


  S S S S E  S E  E  S E  E     S  S S E  E  E  E  S E  E     H         
-----------------------------|-----------------------------|-----------|
-----------------------------|-----------------------------|-----------|
--5-5-5-5-5----5--5----5--5--|--7p-5---5-----5-------------|-----------|
-------------5-------5-------|-------7----7-----7--6-5--3--|-----------|


    Riff B                                                                   
    S      S S S S S S S S S S S S E  S    S S S S S S S S S S S S S E  S    
|---------------------------------------|----------------------------------||
|*--------------------------------------|---------------------------------*||
|*---------------5-------5--------------|----------5-------5--------------*||
|---7------7---7---7---7---7-6-5-3-0----|--7-7---7---7---7---7-6-5-3-0-----||


   S S S S S S S S S S S S S E  S       S S S S S S S S S S S S S E  S    
-----------------------------------||-----------------------------------||
*----------2-------2--------------*||*----------3-------3--------------*||
*--4-4---4---4---4---4-3-2--------*||*--5-5---5---5---5---5-4-3--------*||
---------------------------5-2-----||---------------------------6-3-----||


                                Riff A                               
                                >            >      >        >       
  S  S S E  E  E  E  S E  E     S      S S S E  S S S  S S S E  S S  
-----------------------------|--------------------------------------|
-----------------------------|--------------------------------------|
--7p-5---5-----5-------------|--5h-----7-7-7-7--7-7-5h-7-7-7-7--7-7-|
-------7----7-----7--6-5--3--|--------------------------------------|


  >        >                           >        >      >        >       
  S  S S S E  S S S S  S S S  S S S    S  S S S E  S S S  S S S E  S S  
------------------------------------|----------------------------------|
------------------5-5p-4-5-7p-5-4-0-|----------------------------------|
--5h-7-7-7-7--7-7-------------------|--5h-7-7-7-7--7-7-5h-7-7-7-7--7-7-|
------------------------------------|----------------------------------|


  >        >                         
  S  S S S E  S S S S  S S S  S S S  
------------------------------------|
------------------5-5p-4-5-7p-5-4-0-|
--5h-7-7-7-7--7-7-------------------|
------------------------------------|


  Verso Riff 1                               
  >                  >      >        >       
  S            S S S E  S S S  S S S E  S S  
--------------------------------------------|
--------------------------------------------|
--5h-----------7-7-7-7--7-7-5h-7-7-7-7--7-7-|
--------------------------------------------|


  >        >                           >        >      >        >       
  S  S S S E  S S S S  S S S  S S S    S  S S S E  S S S  S S S E  S S  
------------------------------------|----------------------------------|
------------------5-5p-4-5-7p-5-4-0-|----------------------------------|
--5h-7-7-7-7--7-7-------------------|--5h-7-7-7-7--7-7-5h-7-7-7-7--7-7-|
------------------------------------|----------------------------------|


                                       Verso Riff 2                          
  >        >                                                                 
  S  S S S E  S S S S  S S S  S S S    E            S S E  S S E  S S E  E   
------------------------------------|---------------------------------------|
------------------5-5p-4-5-7p-5-4-0-|---------------------------------------|
--5h-7-7-7-7--7-7-------------------|--3------------3-3-3--3-3-2--2-2-2--2--|
------------------------------------|---------------------------------------|


  >        >      >             >                                
  S  S S S E  S S S  S S S S  S E     E  S S E  E  E  S S E  E   
-----------------------------------|----------------------------|
-----------------------------------|----------------------------|
--5h-7-7-7-7--7-7-5h-7-7-7-3h-5-5--|--3--3-3-3--3--2--2-2-2--2--|
-----------------------------------|----------------------------|


                                      Pre-Coro                          
  >        >      >             >                                       
  S  S S S E  S S S  S S S S  S E     E        S S E  S S E  S S E  E   
-----------------------------------|-----------------------------------|
-----------------------------------|-----------------------------------|
--5h-7-7-7-7--7-7-5h-7-7-7-3h-5-5--|--3--------3-3-3--3-3-2--2-2-2--2--|
-----------------------------------|-----------------------------------|


  E  S S E  E  S S S S S S E     E  S S E  E  S S S S S S S S  
------------------------------|-------------------------------|
--5--5-5-5--5--4-4-4-4-5------|-----------------------4-5-4---|
-------------------------5-2--|--3--3-3-3--3--2-2-2---------5-|
------------------------------|-------------------------------|


  Riff A                                                                    
  >            >      >        >         >        >                         
  S      S S S E  S S S  S S S E  S S    S  S S S E  S S S S  S S S  S S S  
--------------------------------------|------------------------------------|
--------------------------------------|------------------5-5p-4-5-7p-5-4-0-|
--5h-----7-7-7-7--7-7-5h-7-7-7-7--7-7-|--5h-7-7-7-7--7-7-------------------|
--------------------------------------|------------------------------------|


  >        >      >        >         >        >                         
  S  S S S E  S S S  S S S E  S S    S  S S S E  S S S S  S S S  S S S  
----------------------------------|------------------------------------|
----------------------------------|------------------5-5p-4-5-7p-5-4-0-|
--5h-7-7-7-7--7-7-5h-7-7-7-7--7-7-|--5h-7-7-7-7--7-7-------------------|
----------------------------------|------------------------------------|


  Coro                                                          
  >         >                       >      >                    
  S    S E  E.  S S  S S E  S E     S S E  E.  S S S S E  S E   
---------------------------------|-----------------------------|
---------------------------------|---------------5-6-7---------|
--5----7-7--7-----7p-5---5----5--|--5-7-7--7-----------5----5--|
-----------------------7----7----|------------------------7----|


                                  Puente                           
  >       >                                                        
  S  S E  E.  S S  S S E  S E     S      S S S E  S E  E  S E  E   
-------------------------------|----------------------------------|
-------------------------------|----------------------------------|
--5h-7-7--7-----7p-5---5----5--|--3------3-3-3-3----3--3----3--3--|
---------------------7----7----|------------------3-------3-------|


                                  Outro                            
  S S S S E  S E  E  S E  E       S     S S E  E  E  E  S E  E     
-----------------------------||----------------------------------||
-----------------------------||*--------------------------------*||
--5-5-5-5-5----5--5----5--5--||*--7p----5---5-----5-------------*||
-------------5-------5-------||-----------7----7-----7--6-5--3---||


  S  S S E  E  E  E  S E  E     Q     H.             
-----------------------------|---------------------||
-----------------------------|---------------------||
--7p-5---5-----5-------------|--7\-----------------||
-------7----7-----7--6-5--3--|---------------------||




Duration Legend
---------------
W - whole
H - half
Q - quarter
E - 8th
S - 16th
T - 32nd
X - 64th
. - note dotted
|-n-|  - n-tuplets


Tablature Legend
----------------
L - tied note
x - dead note
g - grace note
(n) - ghost note
> - accentuded note
NH - natural harmonic
AH - artificial harmonic
TH - tapped harmonic
SH - semi harmonic
PH - pitch harmonic
h - hammer on
p - pull off
b - bend
br - bendRelease
pb - preBend
pbr - preBendRelease
brb - bendReleaseBend
\n/ - tremolo bar dip
\n - tremolo bar dive
-/n - tremolo bar Release up
/n\ - tremolo bar inverted dip
/n - tremolo bar return
-\n - tremolo bar Release down
S - shift slide
s - legato slide
/ -  slide into from below or out of upwards
\ -  slide into from above or out of downwards
~ - vibrato
W - wide vibrato
tr - trill
TP - tremolo picking
T - tapping
S - slap
P - pop
< - fade in
^ - brush up
v - brush down

            
            
Suggest correction
Creating personal tab
Creating personal tab
You can edit any tab online and save it as your Personal.

You can edit, replace or remove any tab part or add personal notes – all changes will be seen only by you.

Personal tabs can be accessed anytime from any device, even offline.
Learn more »
comments
print report bad tab
guest
You may want to rate the tab now too:
select rating
Wanna post a correction for this tab? Suggest correction