Oops, an error
Loading. Please wait.

One Man Band tab

by Iron On
175 views 1 this week
no commentswrite comment
1 2 3 4 5
3 more votes to show rating
add to favorites
×
Save as Personal and add changes to this tab that will be seen only by you. Learn more ›
×
You can save this tab as Personal to edit and correct it or add notes. All changes will be seen only by you. Learn more »
launch autoscroll
font size
0
reset
how to read this tab
guitar tuner
edit
Autoscroll
slow
fast
+/-
esc
set tempo
stop
Tabbed by:LVeg
Tuning:Standard with CAPO on the 5th

Iron On Official Site: http://www.abandcalledironon.com/press.htm
Myspace: http://www.myspace.com/ironon

Ok it took me a while but I think I have this tab 95% correct. Capo on the 5th fret and
chords are relative to that.  This is a LONG TAB!
For organizations sake the songs structure is this:

Opening Riff
Verse
Chorus
Verse 2
Chorus 2
Bridge
Chorus 3
Verse 3


OPENING RIFF
e|--------------------------------------------------------------------|
B|--------------------------------------------------------------------|
G|------------------------------------------------7-7--5--4-4-4-4-----|
D|------------------------------------5-5--5-5-5--7-7--5--4-4-4-4-----|
A|2-2-2-2-2-2-2-3-2-------------------5-5--5-5-5--5-5--3--2-2-2-2-----|
E|------------------2-2-2-2-2-2-2-3-2-3-3--3-3-3----------------------|

e|----------------------------------|
B|----------------------------------|
G|------------7-7--5--4-4-4-4-------|
D|5-5--5-5-5--7-7--5--4-4-4-4-------|
A|5-5--5-5-5--5-5--3--2-2-2-2-------|
E|3-3--3-3-3------------------------|

e|--------------------------------------------------------------------|
B|--------------------------------------------------------------------|
G|------------------------------------------------4-5-7--7-7-7--------|
D|------------------------------------5-5--5-5-5--4-5-7--7-7-7--------|
A|2-2-2-2-2-2-2-3-2-------------------5-5--5-5-5--2-3-5--5-5-5--------|
E|------------------2-2-2-2-2-2-2-3-2-3-3--3-3-3----------------------|

e|---------------------------------|
B|---------------------------------|
G|------------4-5-7--7-7-7---------|
D|5-5--5-5-5--4-5-7--7-7-7---------|
A|5-5--5-5-5--2-3-5--5-5-5---------|
E|3-3--3-3-3-----------------------|

VERSE
Not gonna tab out every strum but listen to the cd and play along. Just do what you 
sounds good.

e|--------------------------------------------------------------------|
B|--------------------------------------------------------------------|
G|--------------------------------------------------------------------|
D|5-------------------5-----------------------------------------------|
A|5-------------------5-----------------------------------------------|
E|3-------------------2-----------------------------------------------|
   I think that you can tell/ That I wear you well


e|--------------------------------------------------------------------|
B|--------------------------------------------------------------------|
G|5----------------4-5-7----------------------------------------------|
D|5----------------4-5-7----------------------------------------------|
A|3----------------2-3-5----------------------------------------------|
E|--------------------------------------------------------------------|
     'Cause I do

e|--------------------------------------------------------------------|
B|--------------------------------------------------------------------|
G|--------------------------------------------------------------------|
D|5-------------------5-----------------------------------------------|
A|5-------------------5-----------------------------------------------|
E|3-------------------2-----------------------------------------------|
  You were right to say/ They were way past their


e|--------------------------------------------------------------------|
B|--------------------------------------------------------------------|
G|5----------------4-5-7----------------------------------------------|
D|5----------------4-5-7----------------------------------------------|
A|3----------------2-3-5----------------------------------------------|
E|--------------------------------------------------------------------|

 use by date


e|--------------------------------------------------------------------|
B|--------------------------------------------------------------------|
G|--------------------------------------------------------------------|
D|5-------------------5-----------------------------------------------|
A|5-------------------5-----------------------------------------------|
E|3-------------------2-----------------------------------------------|

But you rang me up so sad/And you sad you're all you have


e|--------------------------------------------------------------------|
B|--------------------------------------------------------------------|
G|5-------------------5-----------------------------------------------|
D|5-------------------5-----------------------------------------------|
A|3-------------------2-----------------------------------------------|
E|--------------------------------------------------------------------|

  But that's not true/That's not true

CHORUS
e|--------------------------------------------------------------------|
B|--------------------------------------------------------------------|
G|5-------------------5-----------------------------------------------|
D|5-------------------5-----------------------------------------------|
A|3-------------------2-----------------------------------------------|
E|--------------------------------------------------------------------|
 You're a one man band I'm singing along/ A one night stand that went terribly wrong

Then play this, but only after the first chorus
e|----------------------------------------------------------------------|
B|----------------------------------------------------------------------|
G|----------------------------------------------------------------------|
D|5-5-5-5-5-5-5-5-5-5-5-5-5-5-5-5---------------------------------------|
A|5-5-5-5-5-5-5-5-5-5-5-5-5-5-5-5---------------------------------------|
E|2-2-2-2-2-2-2-2-2-2-2-2-2-2-2-2---------------------------------------|


VERSE 2 (same as the first verse)

Take a knife and cut
The back of my legs as i lay so flat

And i believe everyone
Line drawing you make will change the way i see

But you rang me up so sad
And you asid you're all you have
And that's so true
That's so true

CHORUS 2

The second chorus is a bit different than the first but FEAR NOT!


e|--------------------------------------------------------------------|
B|--------------------------------------------------------------------|
G|5-------------------5-----------------------------------------------|
D|5-------------------5-----------------------------------------------|
A|3-------------------2-----------------------------------------------|
E|--------------------------------------------------------------------|
 You're a one man band I'm singing along/ A one night stand that went terribly wrong


e|--------------------------------------------------------------------|
B|--------------------------------------------------------------------|
G|--------------------------------------------------------------------|
D|5-------------------5-----------------------------------------------|
A|5-------------------5-----------------------------------------------|
E|3-------------------2-----------------------------------------------|

    But i know what to do/ I know what to do


e|--------------------------------------------------------------------|
B|--------------------------------------------------------------------|
G|5-------------------5-----------------------------------------------|
D|5-------------------5-----------------------------------------------|
A|3-------------------2-----------------------------------------------|
E|--------------------------------------------------------------------|
 You're a one man band I'm singing along/ A one man band, blink and there’s a song


e|--------------------------------------------------------------------|
B|--------------------------------------------------------------------|
G|--------------------------------------------------------------------|
D|5-------------------5-----------------------------------------------|
A|5-------------------5-----------------------------------------------|
E|3-------------------2-----------------------------------------------|

   And that's more than they've got/ It's more than they've got

BRIDGE (aka the reason this song has a capo on the 5th fret)
Alright, I know in the bridge the chords go g, em, c, em but I am unsure how they are
Seeing as this is Kate Cooper I’m going to assume it’s the way she plays them in various
Horse songs(it sounds right), but if you want a fuller sound use the full chord shapes.

e|--------------------------------------------------------------------|
B|--------------------------------------------------------------------|
G|--------------------------------------------------------------------|
D|------------------------2-------------------------------------------|
A|2-----------------------2-------------------------------------------|
E|3-------------------------------------------------------------------|
    I don't think they gave them/ to you to get fed
e|----------------------------------------------------------------------|
B|----------------------------------------------------------------------|
G|----------------------------------------------------------------------|
D|2-----------------------2---------------------------------------------|
A|3-----------------------2---------------------------------------------|
E|----------------------------------------------------------------------|
   I think they gave them to you to watch you get eaten/ up instead

e|--------------------------------------------------------------------|
B|--------------------------------------------------------------------|
G|--------------------------------------------------------------------|
D|------------------------2-------------------------------------------|
A|2-----------------------2-------------------------------------------|
E|3-------------------------------------------------------------------|

  We can move graveyards/all you want


e|----------------------------------------------------------------------|
B|----------------------------------------------------------------------|
G|----------------------------------------------------------------------|
D|2-----------------------2---------------------------------------------|
A|3-----------------------2---------------------------------------------|
E|----------------------------------------------------------------------|
    But it wont get very far/     It wont get very far

Then play the 3rd chorus the same as the 2nd chorus and the 3rd verse the same as the
 verse. The strum patter is a bit punchier but I think you guys have it covered. ENJOY Y’ALL!


You're a one man band
I'm singing along
A one night stand that went terribly wrong

But i know what to do
I know what to do

You're a one man band
I'm singing along
Blink and there's a song

And that's more than they've got
It's more than they've got

I think that you can tell
That i wear you well
'Cause i do

            
            
Suggest correction
Creating personal tab
Creating personal tab
You can edit any tab online and save it as your Personal.

You can edit, replace or remove any tab part or add personal notes – all changes will be seen only by you.

Personal tabs can be accessed anytime from any device, even offline.
Learn more »
Give kudos to tab author, rate the tab!
1 2 3 4 5
comments
print report bad tab
guest
You may want to rate the tab now too:
select rating
Wanna post a correction for this tab? Suggest correction