Oops, an error
Loading. Please wait.

Obsolete Man tab

version 1
version 1

Whole song

Interactive

7 views 1 this week
no commentswrite comment
1 2 3 4 5
3 more votes to show rating
add to favorites
×
Save as Personal and add changes to this tab that will be seen only by you. Learn more ›
×
You can save this tab as Personal to edit and correct it or add notes. All changes will be seen only by you. Learn more »
launch autoscroll
font size
0
reset
how to read this tab
guitar tuner
edit
Autoscroll
slow
fast
+/-
esc
set tempo
stop
Obsolete Man" (1:39) from the album "Tyranny Of Will" - Iron Reagan
Released September 16, 2014

[Intro]
(0:00) Guitar 1 (left side)
D#|---------------------------------|----------------------------------|
A#|---------------------------------|----------------------------------|
F#|---------------------------------|----------------------------------|
C#|---------------------------------|----------------------------------|
G#|---------8-------8---------------|---------8-------9-------10-------|
D#|-8-7-7-7---7-7-7---7-7-7-8-7-7-7-|-8-7-7-7---7-7-7---7-7-7----7-7-7-|
 PM * * * *   * * *   * * * * * * *   * * * *   * * *   * * *    * * *           

D#|---------------------------------|----------------------|
A#|---------------------------------|----------------------|
F#|---------------------------------|----------------------|
C#|---------------------------------|----------------------|
G#|---------8-------8---------------|----------13--12--10--|
D#|-8-7-7-7---7-7-7---7-7-7-7-7-7-7-|-7-7-7-7--11--10--8---| (x2)
 PM * * * *   * * *   * * * * * * *   * * * *

(0:00) Guitar 2 (right side)
D#|----|----|----|----------------|--------------|-----------|----------|--------------|
A#|----|----|----|----------------|--------------|-----------|----------|--------------|
F#|----|----|----|----------------|--------------|-----------|----------|--------------|
C#|----|----|----|----------------|--------------|-----------|----------|-----8--7--5--|
G#|-9--|----|----|-----13--12--10-|-10-9-------9-|-10-9------|-10-9-----|-----6--5--3--|
D#|-7--|----|----|-----11--10--8--|-8--7-------7-|-8--7------|-8--7-----|-----6--5--3--|
   (^let ring)

[Verse]
(0:12) (both guitars)
D#|---------------------------------|---------------------------------|
A#|---------------------------------|---------------------------------|
F#|---------------------------------|---------------------------------|
C#|---------------------------------|---------------------------------|
G#|---------3-------3---------------|---------3-------4-------5-------|
D#|-3-2-2-2---2-2-2---2-2-2-3-2-2-2-|-3-2-2-2---2-2-2---2-2-2---2-2-2-|
 PM * * * *   * * *   * * * * * * *   * * * *   * * *   * * *    * * *           

D#|---------------------------------|---------------------------------|
A#|---------------------------------|---------------------------------|
F#|---------------------------------|---------------------------------|
C#|---------------------------------|---------------------------------|
G#|---------3-------3---------------|---------------------------------|
D#|-3-2-2-2---2-2-2---2-2-2-2-2-2-2-|-2-2-2-2-6-6-6-6-5-5-5-5-3-3-3-3-|  (x2)
 PM * * * *   * * *   * * * * * * *   * * * * * * * * * * * * * * * * 

[Chorus]
(0:24) (both guitars)
D#|---------------------|--------------|---------------------|-------------------------------|
D#|---------------------|--------------|---------------------|-------------------------------|
F#|---------------------|--------------|---------------------|-------------------------------|
C#|---------------------|-----5-----7--|---------------------|-------------------------------|
G#|-------------5--4--2-|--4--3--4--5--|-------------5--4--2-|-------------------------------| 
D#|-2--(2(2(2)--3--2--0-|--2-----2-----|-2--(2(2(2)--3--2--0-|-2-(2(2(2(2)-2-2-(2(2(2(2(2(2)-| (x3)
 PM *   * * *                            *   * * *             *  * * * *  * *  * * * * * *

(0:42)
D#|---------------------|--------------|---------------------|---------------------------|
A#|---------------------|--------------|---------------------|---------------------------|
F#|---------------------|--------------|---------------------|---------------------------|
C#|---------------------|-----5-----7--|---------------------|-----------------------7-6-|
G#|-------------5--4--2-|--4--3--4--5--|-------------5--4--2-|-----------------------5-4-| 
D#|-2--(2(2)2)--3--2--0-|--2-----2-----|-2--(2(2(2)--3--2--0-|-2-(2(2(2(2)-2-2-(2(2)-----| (x3)
 PM *   * * *                            *   * * *             *  * * * *  * *  * *  * *
     (^the notes that are in parentheses are 16th notes, I didn't know
       how else to denote the strumming rhythm)

[Bridge]
(0:48) (both guitars)
D#|-----|-----------------|
A#|-----|-----------------|
F#|-----|-----------------|
C#|--4--|--7--6--4--9--9--|
G#|--2--|--5--4--2--7--7--|
D#|-----|-----------------|

(0:51) (both guitars)
D#|-----------------|-----------------|-----------------|-----------------|
A#|-----------------|-----------------|-----------------|-----------------|
F#|-----------------|-----------------|-----------------|-----------------|
C#|---------------5-|-5---------------|---------------5-|-5---------------|
G#|-4-4-4-5-5-4-4-3-|-3-4-4-8-8-7-7-5-|-4-4-4-5-5-4-4-3-|-3-4-4-8-8-7-7-5-|
D#|-2-2-2-3-3-2-2-3-|-3-2-2-6-6-5-5-3-|-2-2-2-3-3-2-2-3-|-3-2-2-6-6-5-5-3-| (x2)

[Lead]
(0:56)
(Again, the notes in parentheses are 16th notes.)
D#|-----------------------------(8(8)-8----------(6(6)-6--(5(5)-5---|
A#|-7-(7(7)-7--(8(8)-8--(7(7)-7----------(7(7)-7------------------8-|
F#|-----------------------------------------------------------------|
C#|-----------------------------------------------------------------|
G#|-----------------------------------------------------------------|
D#|-----------------------------------------------------------------| (x2)

(1:03) (both guitars)
D#|---------------------------------|---------------------------------|
A#|---------------------------------|---------------------------------|
F#|---------------------------------|---------------------------------|
C#|---------------------------------|---------------------------------|
G#|---------3-------3---------------|---------3-------4-------5-------|
D#|-3-2-2-2---2-2-2---2-2-2-3-2-2-2-|-3-2-2-2---2-2-2---2-2-2---2-2-2-|
 PM * * * *   * * *   * * * * * * *   * * * *   * * *   * * *    * * *           

D#|---------------------------------|---------------------------------|
A#|---------------------------------|---------------------------------|
F#|---------------------------------|---------------------------------|
C#|---------------------------------|---------------------------------|
G#|---------3-------3---------------|---------------------------------|
D#|-3-2-2-2---2-2-2---2-2-2-2-2-2-2-|-2-2-2-2-6-6-6-6-5-5-5-5-3-3-3-3-|  (x1)
 PM * * * *   * * *   * * * * * * *   * * * * * * * * * * * * * * * * 

[Chorus]
(1:09) (both guitars)
D#|---------------------|--------------|---------------------|-------------------------------|
D#|---------------------|--------------|---------------------|-------------------------------|
F#|---------------------|--------------|---------------------|-------------------------------|
C#|---------------------|-----5-----7--|---------------------|-------------------------------|
G#|-------------5--4--2-|--4--3--4--5--|-------------5--4--2-|-------------------------------| 
D#|-2--(2(2(2)--3--2--0-|--2-----2-----|-2--(2(2(2)--3--2--0-|-2-(2(2(2(2)-2-2-(2(2(2(2(2(2)-| (x3)
 PM *   * * *                            *   * * *             *  * * * *  * *  * * * * * *

(1:27)
D#|---------------------|--------------|---------------------|---------------------------|
A#|---------------------|--------------|---------------------|---------------------------|
F#|---------------------|--------------|---------------------|---------------------------|
C#|---------------------|-----5-----7--|---------------------|-----------------------7-6-|
G#|-------------5--4--2-|--4--3--4--5--|-------------5--4--2-|-----------------------5-4-| 
D#|-2--(2(2)2)--3--2--0-|--2-----2-----|-2--(2(2(2)--3--2--0-|-2-(2(2(2(2)-2-2-(2(2)-----| (x3)
 PM *   * * *                            *   * * *             *  * * * *  * *  * *  * *


(1:33) (both guitars)
D#|-----|-----------------|-----|
A#|-----|-----------------|-----|
F#|-----|-----------------|-----|
C#|--4--|--7--6--4--9--9--|-----|
G#|--2--|--5--4--2--7--7--|--4--|
D#|-----|-----------------|--2--|


************************************


| PM  Palm mute
| (x) 16th notes

************************************
Suggest correction
Creating personal tab
Creating personal tab
You can edit any tab online and save it as your Personal.

You can edit, replace or remove any tab part or add personal notes – all changes will be seen only by you.

Personal tabs can be accessed anytime from any device, even offline.
Learn more »
Give kudos to tab author, rate the tab!
1 2 3 4 5
comments
print report bad tab
guest
You may want to rate the tab now too:
select rating
Wanna post a correction for this tab? Suggest correction