Oops, an error
Loading. Please wait.

Snake Chopper tab

version 1
version 1

Whole song

Interactive

16 views 1 this week
no commentswrite comment
1 2 3 4 5
3 more votes to show rating
add to favorites
×
Save as Personal and add changes to this tab that will be seen only by you. Learn more ›
×
You can save this tab as Personal to edit and correct it or add notes. All changes will be seen only by you. Learn more »
launch autoscroll
font size
0
reset
how to read this tab
guitar tuner
edit
Autoscroll
slow
fast
+/-
esc
set tempo
stop
"Snake Chopper" (0:55) from the album "Worse Than Dead" - Iron Reagan
Released March 20, 2013. Tabbed by yours truly July 24, 2017

To my understanding, both guitars play the same part except during the chorus.


[Intro] Both Guitars

The palm-muted notes are 16th notes.
(0:00)
D#|------------------------------|--------------------------|
A#|------------------------------|--------------------------|
F#|------------------------------|--------------------------|
C#|------------------------------|--------6-5--3------5-----|
G#|--5----------5----------5-----|-5------4-3--1-1-1--3-3-3-|
D#|--3-3-3-3-3--3-3-3-3-3--3-3-3-|-3-3-3--------------------|
       * * * *    * * * *    * *     * *         * *    * *                  

D#|------------------------------|----------------------------|
A#|------------------------------|----------------------------|
F#|------------------------------|----------------------------|
C#|------------------------------|--------6-5--3--------------|
G#|--5----------5----------5-----|-5------4-3--1-1-1--1-1-1-1-|
D#|--3-3-3-3-3--3-3-3-3-3--3-3-3-|-3-3-3----------------------|
       * * * *    * * * *    * *     * *         * *  * * * *                     

(0:06)
D#|------------------------------|--------------------------|-----------------|
A#|------------------------------|--------------------------|-----------------|
F#|------------------------------|--------------------------|-----------------|
C#|------------------------------|--------6-5--3------5-----|---------6-5-----|
G#|--5----------5----------5-----|-5------4-3--1-1-1--3-3-3-|--5------4-3--5--|
D#|--3-3-3-3-3--3-3-3-3-3--3-3-3-|-3-3-3--------------------|--3-3-3--4-3--3--|
       * * * *    * * * *    * *     * *         * *    * *      * *           

[Verse]
Both Guitars
(0:10) 
Again, the palm muted notes are 16th notes.
D#|----------------------------|-------------------------|
A#|----------------------------|-------------------------|
F#|----------------------------|-------------------------|
C#|---------5-4----------------|--------5-4--2-----4-----|
G#|--4------3-2--4-------------|-4------3-2--0-0-0-2-2-2-|
D#|--2-2-2-------2-2-2-2-2-2-2-|-2-2-2-------------------| x4
       * *         * * * * * *     * *         * *   * *                

[Chorus]
(0:23)
Guitar 1 (right side)
D#|------------------|-----------------|-----------------|------------------|
A#|------------------|-----------------|-----------------|------------------|
F#|------------------|-----------------|-----------------|------------------|
C#|------------------|-----------------|-----------------|-7-7-7-7----------|
G#|--4-4-4-4-4-4-4-4-|-2-2-2-2-2-2-5-5-|-4-4-4-4-4-4-4-4-|-5-5-5-5-3-3-3-3--|
D#|--2-2-2-2-2-2-2-2-|-0-0-0-0-0-0-3-3-|-2-2-2-2-2-2-2-2-|-5-5-5-5-1-1-1-1--|


Guitar 2 (left side)
D#|-------------------------|-------------------|-------------------------|----------------------|
A#|-------------------------|-------------------|-------------------------|----------------------|
F#|-------------------------|-------------------|-------------------------|----------------------|
C#|-11-11-11-11-11-11-11-11-|-9-9-9-9-9-9-12-12-|-11-11-11-11-11-11-11-11-|-7-7-7-7-10-10-10-10--|
G#|--9--9--9--9--9--9--9--9-|-7-7-7-7-7-7-10-10-|--9--9--9--9--9--9--9--9-|-5-5-5-5--8--8--8--8--|
D#|--9--9--9--9--9--9--9--9-|-7-7-7-7-7-7-10-10-|--9--9--9--9--9--9--9--9-|-5-5-5-5--8--8--8--8--|

(0:29) Both Guitars
D#|-----------------|
A#|-----------------|
F#|-----------------|
C#|---------5-4-----|
G#|--4------3-2--4--|
D#|--2-2-2-------2--|
       * *   

[Verse 2] Both Guitars
(0:30) 
D#|----------------------------|-------------------------|
A#|----------------------------|-------------------------|
F#|----------------------------|-------------------------|
C#|---------5-4----------------|--------5-4--2-----4-----|
G#|--4------3-2--4-------------|-4------3-2--0-0-0-2-2-2-|
D#|--2-2-2-------2-2-2-2-2-2-2-|-2-2-2-------------------| x4
       * *         * * * * * *     * *         * *   * * 

[Chorus 2]
(0:43)
Guitar 1 (right side)
D#|------------------|-----------------|-----------------|------------------|
A#|------------------|-----------------|-----------------|------------------|
F#|------------------|-----------------|-----------------|------------------|
C#|------------------|-----------------|-----------------|-7-7-7-7----------|
G#|--4-4-4-4-4-4-4-4-|-2-2-2-2-2-2-5-5-|-4-4-4-4-4-4-4-4-|-5-5-5-5-3-3-3-3--|
D#|--2-2-2-2-2-2-2-2-|-0-0-0-0-0-0-3-3-|-2-2-2-2-2-2-2-2-|-5-5-5-5-1-1-1-1--|

Guitar 2 (left side)
D#|-------------------------|-------------------|-------------------------|----------------------|
A#|-------------------------|-------------------|-------------------------|----------------------|
F#|-------------------------|-------------------|-------------------------|----------------------|
C#|-11-11-11-11-11-11-11-11-|-9-9-9-9-9-9-12-12-|-11-11-11-11-11-11-11-11-|-7-7-7-7-10-10-10-10--|
G#|--9--9--9--9--9--9--9--9-|-7-7-7-7-7-7-10-10-|--9--9--9--9--9--9--9--9-|-5-5-5-5--8--8--8--8--|
D#|--9--9--9--9--9--9--9--9-|-7-7-7-7-7-7-10-10-|--9--9--9--9--9--9--9--9-|-5-5-5-5--8--8--8--8--|  

(0:49) Both Guitars
D#|-----------------|-----------------------|
A#|-----------------|-----------------------|
F#|-----------------|-----------------------|
C#|---------5-4-----|---------5-4--9-9-9-9--|
G#|--4------3-2--4--|--4------3-2--7-7-7-7--|
D#|--2-2-2-------2--|--2-2-2-------7-7-7-7--|
       * *               * * 

            
            
Suggest correction
Creating personal tab
Creating personal tab
You can edit any tab online and save it as your Personal.

You can edit, replace or remove any tab part or add personal notes – all changes will be seen only by you.

Personal tabs can be accessed anytime from any device, even offline.
Learn more »
Give kudos to tab author, rate the tab!
1 2 3 4 5
comments
print report bad tab
guest
You may want to rate the tab now too:
select rating
Wanna post a correction for this tab? Suggest correction