Oops, an error
Loading. Please wait.

Smells Like Fun tab

version 1
version 1

Whole song

Interactive

489 views 3 this week
2 commentsread comments
1 2 3 4 5
3 more votes to show rating
add to favorites
×
Save as Personal and add changes to this tab that will be seen only by you. Learn more ›
×
You can save this tab as Personal to edit and correct it or add notes. All changes will be seen only by you. Learn more »
launch autoscroll
font size
0
reset
how to read this tab
guitar tuner
edit
Autoscroll
slow
fast
+/-
esc
set tempo
stop
Author
Difficulty
Band: Iron Weasel
Song: Smells Like Fun
Tuning:Standard
BPM: Unkown (sorry)
*The rhythm guitar chords are above the tabs remember them due to the solo which i don't know*
Intro Chorus
Verse
Pre-chorus
Chorus
Verse
Pre-chorus
Chorus
Bridge
Solo
Pre-Chorus
Chorus Break
Chorus outro
Derek: 1. 2. 1,2,3,
   Em                               Cmaj
e|---------------|----------------|----------------|---------------|
B|---------------|----------------|----------------|---------------|
G|---------------|----------------|5-5-5-5-5-5-5-5-|-5-5-5-5-5-5-5-|
D|2-2-2-2-2-2-2-2|-2-2-2-2-2-2-2-2|5-5-5-5-5-5-5-5-|-5-5-5-5-5-5-5-|
A|2-2-2-2-2-2-2-2|-2-2-2-2-2-2-2-2|3-3-3-3-3-3-3-3-|-3-3-3-3-3-3-3-|
E|0-0-0-0-0-0-0-0|-0-0-0-0-0-0-0-0|----------------|---------------|

                  Gmaj                              Dmaj
e|---------------|---------------|----------------|---------------|
B|---------------|---------------|----------------|---------------|
G|-5-5-5-5-5-5-5-|---------------|----------------|7-7-7-7-7-7-7-7|
D|-5-5-5-5-5-5-5-|5-5-5-5-5-5-5-5|-5-5-5-5-5-5-5-5|7-7-7-7-7-7-7-7|
A|-3-3-3-3-3-3-3-|5-5-5-5-5-5-5-5|-5-5-5-5-5-5-5-5|5-5-5-5-5-5-5-5|
E|---------------|3-3-3-3-3-3-3-3|-3-3-3-3-3-3-3-3|---------------|

 |---------------|
 |---------------|
 |-7-7-7-7-7-7-7-|
 |-7-7-7-7-7-7-7-|
 |-5-5-5-5-5-5-5-|
 |---------------|   The previous chords were used in the verse continuously
                      in a quarter note fashion. If you listen to the song,  you'll understand.

Pre-Chorus

 sorta clean tone

   Amaj          Bmaj
e|--------------|---------------|
B|--------------|---------------|            Lifes a game we're here to play
G|2-------------|4--------------|            But that's our motto every day
D|2-------------|4--------------|X2
A|0-------------|2--------------|
E|--------------|---------------|
   W             W

The Chorus pretty much is the intro
 Verse 2
Pre-chorus 2
Chorus 2

Bridge is basically the pre-chorus played a few times over

*Solo* Once again i do not know the solo but i do know that it's in the Em key then it
changed to C then to G then to D.(see what it does?)


Pre-Chorus 3

Chorus 3~ now this is a instrumental break here for drums and bass for half of the
chorus the guitar goes over the chorus half way through it drums and bass join back in.

Chorus outro ~ the Lead then does a solo over the other instrument with multi-track but
the everything is the same

hope this helps give me a break this is my first tab i've ever made. enjoy
Suggest correction
Creating personal tab
Creating personal tab
You can edit any tab online and save it as your Personal.

You can edit, replace or remove any tab part or add personal notes – all changes will be seen only by you.

Personal tabs can be accessed anytime from any device, even offline.
Learn more »
Give kudos to tab author, rate the tab!
1 2 3 4 5
comments
print report bad tab
2 comments total.
0 reply
Jadestrat2011 113 Dec 02, 2013 11:13 AM

BPM is believed to be 100

0 reply
Jadestrat2011 113 Dec 02, 2013 11:21 AM, edited at 04:24 pm

the rythmn of the verse is also off. Its not what the tab says its triplets of eighth notes of the chords in the intro and chorus. Et ERt Et QR

ET= Eighth Triplet
ERT= Eighth Rest Triplet
QR = Quarter Rest.

guest
You may want to rate the tab now too:
select rating
Wanna post a correction for this tab? Suggest correction