Oops, an error
Loading. Please wait.

Belated Promise Ring Tab

28,640 views 12 this week
no commentswrite comment
1 2 3 4 5
excellent!
x 8
add to favorites
launch autoscroll
font size
0
reset
how to read this tab
guitar tuner
Tab Pro tools
  • play this tab
  • loop segment
  • change instrument
  • show fretboard
  • metronome
×
Best way to learn
"Belated Promise Ring"
Autoscroll
slow
fast
+/-
esc
set tempo
stop
Capo
2nd fret
Capo 2nd fret

     F                C               G 

E|---------0----------------0-----------------------|
B|---1----------------1-------------1-------0-------|
G|-------------2----------------0-------0-------0---|
D|-------3--------3-------2-------2-------0-------0-|
A|---3-------3--------3-------3---------------------|
E|------------------------------------3-------3-----|




     C                F                C               G
     
E|---------0----------------0----------------0---------------3-------3---------------|
B|---1----------------1--------------1---------------1-----------------------0-------|
G|--------------0---------------2----------------0-------0-------0-------0-------0---|
D|-------2--------2-------3--------3-------2-------2-------0-------0-------0-------0-|
A|---3--------3-------3-------3--------3-------3-------------------------------------|
E|-----------------------------------------------------3-------3-------3-------3-----|

Sometimes hammer on first finger of the 3rd C during the progression.

Please comment or correct.

Anthony

comments
print report bad tab
I want to post or [tab]
guest
You may want to rate the tab now too:
select rating
Please do not post tabs as comments. Select "correction" instead!