Oops, an error
Loading. Please wait.

Big Burned Hand tab

version 2
version 2

Whole song

Interactive

784 views 6 this week
no commentswrite comment
1 2 3 4 5
1 last vote to show rating
add to favorites
×
Save as Personal and add changes to this tab that will be seen only by you. Learn more ›
×
You can save this tab as Personal to edit and correct it or add notes. All changes will be seen only by you. Learn more »
launch autoscroll
font size
0
reset
how to read this tab
guitar tuner
edit
Autoscroll
slow
fast
+/-
esc
set tempo
stop
Tabbed from the 4AD session video https://www.youtube.com/watch?v=WtQpMAquPW8

I'm pretty sure this is about 90% right. There's probably a few notes I missed here and there.
Same patterns are repeated with a few variations throughout. Anything in brackets is played some of the time.



A Theme: (come back after variations)
When the arrogant goddess of love came to
D|----------0----------0----------------------------|
A|-------------------------------0------------------|
G|--------------------------2-----------------------|
D|-------0---------0----------0--------0------------|
A|------------0h3------------------0h3--------------|
D|--0--------------------0--------------------------|

B Variation:
steal my shoes...
D|--------0----------[0]------0----------------------|
A|--------------------------------------------------|
G|--0----------0------0---------0-------------------|
D|-----0---------0-------0--------0-----------------|
A|--3--------3--------2------2----------------------|
D|--------------------------------------------------|

repeat A theme with B variation

C Variation:
one's to give
And one's to take away...
D|--------0---------------0-------------------------|
A|--------------------------------------------------|
G|--0----------0-----0---------0--------------------|
D|-----0---------0------0--------0------------------|
A|--------------------------------------------------|
D|--3-------3--------5------/7----------------------|

repeat A theme

D Variation:
But neither of them will keep you off your knees
D|-------[0]---------------[0]--------------------------|
A|--------0-----------------0-----------------------|
G|--0----------0-------0---------0------------------|
D|-----0---------0--------0--------0----------------|
A|--------------------------------------------------|
D|--3-------3----------2-----2----------------------|

A theme -> C Variation -> A theme -> D Variation -> A theme repeated a few times

REPEAT. 

Lyrics:
When the arrogant goddess of love came to steal my shoes
She had a white-hot pistol and a noname hard tattoo
Saying one's to give
And one's to take away
But neither of them will keep you off your knees
The children bowed and bolted off the stage
While the lion and the lamb kept fighting for the shade tree

And the ransom God of war came to set me free
He had a couple of cold bottles full of gasoline
Saying all I love is all that I allow
You blew me a kiss of a big burned hand
Get each up with smoke and fell down
While the lion and the lamb kept shooting at a tin can

When the gun-shy goddess of love came back to patch things up
She had a purple heart and mother's milk in a plastic cup
Saying he loves to lay you gently in the grave
He loves the flag you fold before you go
When the curtain rolls the crowd is blown away
While the lion and the lamb kept fucking in the back road
Suggest correction
Creating personal tab
Creating personal tab
You can edit any tab online and save it as your Personal.

You can edit, replace or remove any tab part or add personal notes – all changes will be seen only by you.

Personal tabs can be accessed anytime from any device, even offline.
Learn more »
Give kudos to tab author, rate the tab!
1 2 3 4 5
comments
print report bad tab
guest
Wanna post a correction for this tab? Suggest correction