Oops, an error
Loading. Please wait.

Boy With A Coin Tab

version 3
version 3

Whole song

Interactive

33,651 views 1 this week
1 commentread comment
1 2 3 4 5
accurate
x 4
add to favorites
launch autoscroll
font size
0
reset
how to read this tab
guitar tuner
Tab Pro tools
  • play this tab
  • loop segment
  • change instrument
  • show fretboard
  • metronome
×
Best way to learn
"Boy With A Coin"
Autoscroll
slow
fast
+/-
esc
set tempo
stop
Difficulty
intermediate


e|--------------------------------------0---------|
B|-*----/3-1-0---1---0h1----/3-1-0--0-----0-----*-|
G|-----------------0-----0------------------------|
D|------/4-2-0--------------/4-2-0----2-----------|
A|-*-------------3------------------2-----------*-|
E|------------------------------------------------|


Lyrics:
A boy with a coin he found in the weeds
With bullets and pages of trade magazines
Close to a car that flipped on the turn
When God left the ground to circle the world

A girl with a bird she found in the snow
Then flew up her gown and that’s how she knows
If God made her eyes for crying at birth
Then left the ground to circle the earth

A boy with a coin he crammed in his jeans
Then making a wish he tossed in the sea
Walked to a town that all of us burn
When God left the ground to circle the world
comments
print report bad tab
1 comment total.
0 reply
Thread Cat, imo wrote on July 24 2009, 10:34 pm

I think it sounds better as e|--------------------------------------0---------|
B|-*----/3-1-0---1---0h1----/3-1-0--0-----0-----*-|
G|-----------------0-----0------------------------|
D|------/4-2-0--------------/4-2-0----2-----------|
A|-*-------------3------------------------------*-|
E|----------------------------------0-------------|

Awesome song for how simple it is

I want to post or [tab]
guest
You may want to rate the tab now too:
select rating
Please do not post tabs as comments. Select "correction" instead!