Oops, an error
Loading. Please wait.

Boy With A Coin Tab

version 4
version 4

Whole song

Interactive

56,174 views 24 this week
no commentswrite comment
1 2 3 4 5
excellent!
x 20
add to favorites
launch autoscroll
font size
0
reset
how to read this tab
guitar tuner
Tab Pro tools
  • play this tab
  • loop segment
  • change instrument
  • show fretboard
  • metronome
×
Best way to learn
"Boy With A Coin"
Autoscroll
slow
fast
+/-
esc
set tempo
stop
Contributor
-------------------------------------------------------------------------------
                                         Boy With A Coin - Iron & Wine
-------------------------------------------------------------------------------
Tabbed by: Jared771     
Email:     I'm no longer giving out my email as of Summer 2012. 
           You can message me on Ultimate-Guitar, but this profile 
           is more or less abandoned. I apologize for the inconvenience.

Tuning: Standard

Version 1.0 - June 30, 2009

Notes
------
This is the tab for the acoustic version of Boy With A Coin, which 
is on an 8-part demo track that can be downloaded at 
[http://www.themilkcarton.com/forums/showthread.php?t=3612]. 

It is slightly different from the CD version, in that it's a bit 
shorter, and the Pull-Offs and Hammer-Ons are switched around a 
bit, but it is essentially the same song.


Verse 1:

e|----------------3-------------0--------------3p0--------------0--|
B|-/3-1-0-----0h1----/3-1-0-------0-/3-1-0---------1-/3-1-0-------0|
G|----------0-----0--------------------------0---------------------|
D|-/4-2-0------------/4-2-0---2-----/4-2-0-----------/4-2-0---2----|
A|--------3--------------------------------3-----------------------|
E|--------------------------0-------------------------------0------|


e|----------------3-------------0------------------3------------0--|
B|-/3-1-0-----0h1----/3-1-0-------0-/3-1-0-----0h1---/3-1-0-------0|
G|----------0--------------------------------0----------------2----|
D|-/4-2-0------------/4-2-0---2-----/4-2-0-----------/4-2-0--------|
A|--------3--------------------------------3-----------------------|
E|--------------------------0-------------------------------0------|
   Boy with a coin...


e|------------3p0---------------0------------------3------------0--|
B|-/3-1-0---------1--/3-1-0-------0-/3-1-0-----0h1---/3-1-0-------0|
G|----------0--------------------------------0----------------2----|
D|-/4-2-0------------/4-2-0---2-----/4-2-0-----------/4-2-0--------|
A|--------3--------------------------------3-----------------------|
E|--------------------------0-------------------------------0------|
   Close to a car...


Chorus 1:

e|----------------3-------------0------------------3------------0--|
B|-/3-1-0-----0h1----/3-1-0-------0-/3-1-0-----0h1---/3-1-0-------0|
G|----------0--------------------------------0----------------2----|
D|-/4-2-0------------/4-2-0---2-----/4-2-0-----------/4-2-0--------|
A|--------3--------------------------------3-----------------------|
E|--------------------------0-------------------------------0------|


e|------------3p0---------------0------------------3------------0--|
B|-/3-1-0---------1--/3-1-0-------0-/3-1-0-----0h1---/3-1-0-------0|
G|----------0--------------------------------0----------------2----|
D|-/4-2-0------------/4-2-0---2-----/4-2-0-----------/4-2-0--------|
A|--------3--------------------------------3-----------------------|
E|--------------------------0-------------------------------0------|


Verse 2:

e|----------------3-------------0------------------3------------0--|
B|-/3-1-0-----0h1----/3-1-0-------0-/3-1-0-----0h1---/3-1-0-------0|
G|----------0--------------------------------0----------------2----|
D|-/4-2-0------------/4-2-0---2-----/4-2-0-----------/4-2-0--------|
A|--------3--------------------------------3-----------------------|
E|--------------------------0-------------------------------0------|
   Girl with a bird...


e|----------------3-------------0--------------3p0--------------0--|
B|-/3-1-0-----0h1----/3-1-0-------0-/3-1-0---------1-/3-1-0-------0|
G|----------0--------------------------------0----------------2----|
D|-/4-2-0------------/4-2-0---2-----/4-2-0-----------/4-2-0--------|
A|--------3--------------------------------3-----------------------|
E|--------------------------0-------------------------------0------|
   That God made her eyes...


Chorus 2:

e|----------------3-------------0------------------3------------0--|
B|-/3-1-0-----0h1----/3-1-0-------0-/3-1-0-----0h1---/3-1-0-------0|
G|----------0--------------------------------0----------------2----|
D|-/4-2-0------------/4-2-0---2-----/4-2-0-----------/4-2-0--------|
A|--------3--------------------------------3-----------------------|
E|--------------------------0-------------------------------0------|


e|----------------3-------------0------------------3------------0--|
B|-/3-1-0-----0h1----/3-1-0-------0-/3-1-0-----0h1---/3-1-0-------0|
G|----------0--------------------------------0----------------2----|
D|-/4-2-0------------/4-2-0---2-----/4-2-0-----------/4-2-0--------|
A|--------3--------------------------------3-----------------------|
E|--------------------------0-------------------------------0------|


Bridge:

e|----------------3------------3p0--------------0---------------0--|
B|-/3-1-0-----0h1---/3-1-0---------1-/3-1-0-------0--/3-1-0-------0|
G|----------2----------------2-------------------------------------|
D|-/4-2-0-----------/4-2-0-----------/4-2-0---2------/4-2-0---2----|
A|--------0----------------0---------------------------------------|
E|------------------------------------------0---------------0------|


e|----------------3------------3p0--------------0---------------0--|
B|-/3-1-0-----0h1---/3-1-0---------1-/3-1-0-------0--/3-1-0-------0|
G|----------2----------------2-------------------------------------|
D|-/4-2-0-----------/4-2-0-----------/4-2-0---2------/4-2-0---2----|
A|--------0----------------0---------------------------------------|
E|------------------------------------------0---------------0------|


Verse 3:

e|----------------3-------------0------------------3------------0--|
B|-/3-1-0-----0h1----/3-1-0-------0-/3-1-0-----0h1---/3-1-0-------0|
G|----------0--------------------------------0----------------2----|
D|-/4-2-0------------/4-2-0---2-----/4-2-0-----------/4-2-0--------|
A|--------3--------------------------------3-----------------------|
E|--------------------------0-------------------------------0------|
   Boy with a coin...


e|----------------3-------------0------------------3------------0--|
B|-/3-1-0-----0h1----/3-1-0-------0-/3-1-0-----0h1---/3-1-0-------0|
G|----------0--------------------------------0----------------2----|
D|-/4-2-0------------/4-2-0---2-----/4-2-0-----------/4-2-0--------|
A|--------3--------------------------------3-----------------------|
E|--------------------------0-------------------------------0------|
   And walked to a town...


Chorus 3:

e|----------------3-------------0------------------3------------0--|
B|-/3-1-0-----0h1----/3-1-0-------0-/3-1-0-----0h1---/3-1-0-------0|
G|----------0--------------------------------0----------------2----|
D|-/4-2-0------------/4-2-0---2-----/4-2-0-----------/4-2-0--------|
A|--------3--------------------------------3-----------------------|
E|--------------------------0-------------------------------0------|


e|------------3p0---------------0------------------3------------0--|
B|-/3-1-0---------1--/3-1-0-------0-/3-1-0-----0h1---/3-1-0-------0|
G|----------0--------------------------------0----------------2----|
D|-/4-2-0------------/4-2-0---2-----/4-2-0-----------/4-2-0--------|
A|--------3--------------------------------3-----------------------|
E|--------------------------0-------------------------------0------|


e|----------------3-------------0--------------3p0--------------0--|
B|-/3-1-0-----0h1----/3-1-0-------0-/3-1-0---------1-/3-1-0-------0|
G|----------0--------------------------------0----------------2----|
D|-/4-2-0------------/4-2-0---2-----/4-2-0-----------/4-2-0--------|
A|--------3--------------------------------3-----------------------|
E|--------------------------0-------------------------------0------|

           
e|----------------3-------------0------------------3---------------|
B|-/3-1-0-----0h1----/3-1-0-------0-/3-1-0-----0h1---/3-1-0--------|
G|----------0--------------------------------0---------------------|
D|-/4-2-0------------/4-2-0---2-----/4-2-0-----------/4-2-0--------|
A|--------3--------------------------------3-----------------------|
E|--------------------------0-------------------------------0...---|


| /  slide up
| \  slide down
| h  hammer-on
| p  pull-off
| ~  vibrato
| +  harmonic
| x  Mute note
| .  sustained note
===============================================================================
comments
print report bad tab
I want to post or [tab]
guest
You may want to rate the tab now too:
select rating
Please do not post tabs as comments. Select "correction" instead!