Oops, an error
Loading. Please wait.

Cinder And Smoke Tab

version 2
version 2

Whole song

Interactive

167,164 views 339 this week
10 commentsread comments
1 2 3 4 5
x 97
add to favorites
launch autoscroll
font size
0
reset
how to read this tab
guitar tuner
×
Best way to learn
"Cinder And Smoke"
Autoscroll
slow
fast
+/-
esc
set tempo
stop
Capo
2nd fret
Standard Tuning - Capo 2

Main Chord shapes (relative to capo)

x02210

x03230

0(2)200x


[Intro] [0:00 to 0:17]

e|----------0-----------------------0-----------------------0-----------------------0---------------|
B|-1--------------------1-----------------------1--3--------------------3-----------------------0---|
G|----2-----------2-----------2-----------2-----------2-----------2-----------2-----------2---------|
D|-------2-----------2-----------2-----------2-----------3-----------3-----------3-----------3------|
A|-0-----------0-----------0-----------0-----------0-----------0-----------0-----------0------------|
E|--------------------------------------------------------------------------------------------------|

e|-------------------------------------------------------------0--------------------------------------|
B|----------0------------0-----------0----------------3--------------------3-----------3-----------0--|
G|----0------------0-----------0-------------0-----------2-----------2-----------2-----------2--------|
D|-------2------------2-----------2-------------------------3-----------3-----------3-----------3-----|
A|-------------0h2----------------------0-------2-----0-----------0-----------0-----------0-----------|
E|-0------------------------0-------------------------------------------------------------------------|


[Main Groove] (repeat until the end)

e|-----------------------0------------------------------------------------0---------------------------|
B|(1)--------1-----------------------1-----------0-(3)--------3-----------------------3-----------0---|
G|-----2-----------2-----------2-----------2------------2-----------2-----------2-----------2---------|
D|--------2-----------2-----------2-----------2------------3-----------3-----------3-----------3------|
A|-0------------0-----------0-----------0-----------0------------0-----------0-----------0------------|
E|----------------------------------------------------------------------------------------------------|

e|-------------------------------------------------------------0-----------------------0--------------|
B|----------0------------0-----------0----------------3--------------------3-----------------------0--|
G|----0------------0-----------0-------------0-----------2-----------2-----------2-----------2--------|
D|-------2------------2-----------2-------------------------3-----------3-----------3-----------3-----|
A|-------------0h2----------------------0-------2-----0-----------0-----------0-----------0-----------|
E|-0------------------------0-------------------------------------------------------------------------|

give me your hand,
the dog in the garden roam,
is covered in mud,
and dragging your mothers clothes,
cinder and smoke,
the snake in the basement found,
the juniper shade,
the farmhouse is burnin down.

give me your hand,
and take what you will tonight,
ill give it as fast,
and high as the flame will rise,
cinder and smoke,
some whispers around the trees,
the juniper bends,
as if you were listening.

give me your hand,
your mother is drunk as all,
the firemen shake,
a photo from father's aunt,
cinder and smoke,
youll ask me to pray for rain,
with ash in your mouth,
youll ask it to burn again.

****Note that he occasionally changes up the pattern of the melody notes that he hits on
B and high E strings, I just didn't include all the variations because they are easy to
out and really don't make an enormous difference overall.  The key is in maintaining a
steady melody note pattern over the lyrics.*****



************************************

| (n)  Ghost note
| h    Hammer-on

************************************
Suggest correction
comments
print report bad tab
10 comments total. Showing first comments.
0 reply
Arkaic 52 Sep 19, 2006 11:54 AM

nicely done man.

0 reply
Levi! 10 Oct 19, 2006 12:44 PM

very good!

0 reply
Indie Purist 949 Nov 03, 2006 08:20 PM

great tab thanks

guest
You may want to rate the tab now too:
select rating
Wanna post a correction for this tab? Suggest correction