Oops, an error
Loading. Please wait.

Communion Cups And Someones Coat Tab

version 3
version 3

Interactive

18,201 views 15 this week
4 commentsread comments
1 2 3 4 5
excellent!
x 15
add to favorites
launch autoscroll
font size
0
reset
how to read this tab
guitar tuner
Tab Pro tools
  • play this tab
  • loop segment
  • change instrument
  • show fretboard
  • metronome
×
Best way to learn
"Communion Cups And Someones Coat"
Autoscroll
slow
fast
+/-
esc
set tempo
stop
Difficulty
Capo
advanced
4th fret
Song: "Communion Cups & Someone's Coat"
Artist: Iron & Wine
Album: Passing Afternoon EP

Tuning (low to high): EGDGBD (tune the A string and the high E string down one full step each)

Capo 4th fret

h= hammer on
p= pull off
/= slide up
(4)= let this note resonate, but don't pluck it

All the tabs of this song on this site have you playing the same notes, but I think this 
the easiest way to play them.

Riff A  (Intro & Verses)                             Ending 1
D|-------0--------------------------------0--------|-5-----7-----5-----|
B|-0---------------0h1p0---------------------------|---3-----3---------|
G|---0-------0-----------2p0-----0----0-------0----|-----0-----0-------|
D|-----7-------7-------------0h2--------7-------7--|-------------------|
G|-------------------------------------------------|-0-----------------|
E|-8-------8------3-----------------8-------8------|-------------------|


  Ending 2
|-5-------------|
|-----3-------3-|
|---------0-----|
|---------------|
|---------------|
|-0-------------|

All of this = x1


Riff B   (Chorus)
|------0----------------0----------------0--------------0-------|
|-0----------------0----------------0-----------0---------------|
|---------0----------------0----------------0-------0-------0---|
|----2------2/(4)-----4------4/(5)-----5------5-------5-------5-|
|-2----------------4----------------5-------------5-------5-----|
|---------------------------------------------------------------|

Song Order:
Riff A x4
Riff B x2
Riff A x3
Riff B x2
Riff A x2


Lyrics:
Talk of yesterday and she will show her
Brothers photographed in callous clothes
Say tomorrow and she'll say "Come find me
On a beach and there will be no moon."

But say today
She may kiss your face
And maybe forget

Talk of yesterday like bargain shoe strings
She will kick the car and find her friends
Say tomorrow and then she'll describe some
Old communion cups and someone's coat

But say today
She will look your way
And lead you home
comments
print report bad tab
4 comments total. Showing first comments.
0 reply
ssj2richard wrote on July 22 2010, 05:56 am

5***** Love the tab!
Prob wrong lol but i find this much easier to play for the chorus, sounds pretty close! listen out to parts he plays more lightly.


D|-------0------------------0----------------0---------------0---------|
B|-0------------------0----------------0-------------0-----------------|
G|---0-------0----------0-----0----------0-------0-------0-------0-----|
D|-----2-------2/(4)-------4-----4/(5)-------5-------5-------5-------5---|
G|-2-------2----------4----------------5-------5-------5-------5-------|
E|---------------------------------------------------------------------|

0 reply
ssj2richard wrote on July 22 2010, 05:58 am

Correction :S


D|-------0------------------0----------------0---------------0---------|
B|-0------------------0----------------0-------------0-----------------|
G|---0-------0----------0-----0----------0-------0-------0-------0-----|
D|-----2-------2/(4)------4-----4/(5)------5-------5-------5-------5---|
G|-2-------2----------4----------------5-------5-------5-------5-------|
E|---------------------------------------------------------------------|

0 reply
prettymaryk wrote on November 23 2010, 07:51 pm

A beautiful tab for a beautiful song. You make it look easy too. Well done.

I want to post or [tab]
guest
You may want to rate the tab now too:
select rating
Please do not post tabs as comments. Select "correction" instead!