Oops, an error
Loading. Please wait.

Each Coming Night Tab

version 1
version 1

Whole song

Interactive

54,164 views 12 this week
3 commentsread comments
1 2 3 4 5
accurate
x 6
add to favorites
launch autoscroll
font size
0
reset
how to read this tab
guitar tuner
Tab Pro tools
  • play this tab
  • loop segment
  • change instrument
  • show fretboard
  • metronome
×
Best way to learn
"Each Coming Night"
Autoscroll
slow
fast
+/-
esc
set tempo
stop
Contributor
Capo
2nd fret
Each Coming Night
Iron & Wine

Tuning: standard
CAPO ON THE 2ND FRET

(fingerpicked)
F#------------------------------------------------------------------|
C#-------1-------1-------1--------0-------0---------------0---------|
 A---0-------0-------2--------0-------2-------2-------4-------4---0-|
 E-----2-------0-------2--------2-----------------3-----------------|
 B-3-------2-------0--------------------3-------3-------5-------0---|
F#--------------------------0-------1-------1-------3-------3-------|

repeat and enjoy.
comments
print report bad tab
3 comments total.
0 reply
izaquapark wrote on May 12 2006, 09:24 pm

2nd half is wrong
i posted a correct version, but was rejected for it was to similar to yours

0 reply
TheHeelaMonster wrote on September 16 2008, 08:19 pm

F#------------------------------------------------------------------|
C#-------1-------1-------1--------0-------0---------------0---------|
A---0-------0-------2--------0-------2-------2-------4-------4---0-|
E-----2-------0-------2--------2-----------------3-----------------|
B-3-------2-------0--------------------3-------3-------5-------0---|
F#--------------------------0-----*3-1-------1-------3-------3-------|

for the first part there is a 3 to the 1 on the E

0 reply
alinktothepast9 wrote on February 17 2011, 03:42 pm

The picking is slightly wrong, but tuning the guitar like that and then putting a capo on the second fret is exactly the same as keeping it in standard tuning without a capo....

I want to post or [tab]
guest
You may want to rate the tab now too:
select rating
Please do not post tabs as comments. Select "correction" instead!