Oops, an error
Loading. Please wait.

Each Coming Night Tab

version 2
version 2

Whole song

Interactive

7,168 views 6 this week
1 commentread comment
1 2 3 4 5
accurate
x 3
add to favorites
launch autoscroll
font size
0
reset
how to read this tab
guitar tuner
Tab Pro tools
  • play this tab
  • loop segment
  • change instrument
  • show fretboard
  • metronome
×
Best way to learn
"Each Coming Night"
Autoscroll
slow
fast
+/-
esc
set tempo
stop
Contributor
Difficulty
intermediate
Song is Capoed at 2
(notes relative to capo)

Main Part (repeat many times)
F#------------------------------------------------------------------|
C#-------1-------1-------1--------0-------0---------------0---------|
 A---0-------0-------2--------0-------2-------2-------4-------4---0-|
 E-----2-------0-------2--------2-----------------3-----------------|
 B-3-------2-------0--------------------3-------3-------5-------0---|
F#--------------------------0-------1-------1-------3-------3-------|

Solo (play twice)
F#---------------------------------|
C#---5-3---------------------------|
 A------5--2-4-5-2-----2-4-5-4-2---|
 E-----------------3-5-----------5-|
 B---------------------------------|
F#---------------------------------|


F#---------------------------------|
C#--5-3----------------------------|
 A------5--2-4-5-2-2---2-4-5-4-----|
 E-----------------3-5-----------5-|
 B---------------------------------|
F#---------------------------------|

This is my first attempt at any kind of tab. Let me know what you guys think.

Mamono@optonline.net
comments
We did not receive enough feedback on this tab! Please rate:
print report bad tab
1 2 3 4 5
1 comment total.
-1 reply
patunox wrote on April 3 2007, 05:15 pm

You copied the first part from another tab. Or viceversa. It's wrong either way.

I want to post or [tab]
guest
You may want to rate the tab now too:
select rating
Please do not post tabs as comments. Select "correction" instead!